Log in

One click and you are in

Login with Facebook Login with Google

Why sign up and log in

Guitar Tabs Explorer
Band Aid bass tabs for Do they know its christmas

Do They Know Its Christmas bass tab by Band Aid

Band Aid bass tabs for Do they know its christmas

Bass tabs

🎁☃❄🎄🎅🎁☃❄🎄🎅🎁☃❄🎄🎅🎁☃❄🎄🎅

Intro:
G|-----------------------------|
D|-----------------------------|
A|-3--------3--------3-------3-|
E|-----------------------------|


Verse:
 It’s Christmas Time There’s no need to be afraid At Christmas Time
G|----------------------------------------------------------------------|
D|----------------------------------------------------------------------|
A|--------------3----3-----------------3------------3--------------3----|
E|----------------------------------------------------------------------|

 We let in light and we banish shade And in our world of plenty we
G|------------------------------------------------------------------------|
D|------------------------------------------------------------------------|
A|-3-----------------------3------------3------------3---------3----------|
E|------------------------------------------------------------------------|

 Can spread a smile of joy Throw your arms around the world at Christmas
G|------------------------------------------------------------------------|
D|------------------------------------------------------------------------|
A|---3-----------------3----------------3---------------3-----------------|
E|------------------------------------------------------------------------|

 Time (Play Quavers)
G|---------------------------------------------------------------------|
D|---------------------------------------------------------------------|
A|-3-3-3-3-3-3-3-3--3-3-3-3-3-3-3-3------------------------------------|
E|-----------------------------------1-1-1-1-1-1-1-1---3-3-3-3-3-3-3-3-|

G|---------------------------------------------------------------------|
D|---------------------------------------------------------------------|
A|-3-3-3-3-3-3-3-3--3-3-3-3-3-3-3-3------------------------------------|
E|-----------------------------------1-1-1-1-1-1-1-1---3-3-3-3-3-3-3-3-|

G|----------------------------------|
D|----------------------------------|
A|-3-3-3-3-3-3-3-3--3-3-3-3-3-3-3-3-|
E|----------------------------------|

Bridge:
G|---------------------------------------------------------------------|
D|-----------------------------------------------------3-3-3-3-3-3-3-3-|
A|-----------------------------------3-3-3-3-3-3-3-3-3-----------------|
E|-1-1-1-1-1-1-1-1---3-3-3-3-3-3-3-3-----------------------------------|

G|-------------------------------------------------------------------|
D|-0-0-0-0-0-0-0-0---5-5-5-5-5-5-5-5-----------------3-3-3-3-3-3-3-3-|
A|-----------------------------------3-3-3-3-3-3-3-3-----------------|
E|-------------------------------------------------------------------|

G|-------------------------------------------------------------------|
D|-0-0-0-0-0-0-0-0---5-5-5-5-5-5-5-5-----------------3-3-3-3-3-3-3-3-|
A|-----------------------------------3-3-3-3-3-3-3-3-----------------|
E|-------------------------------------------------------------------|

G|--------------------------------------------------------------------|
D|-0-0-0-0-0-0-0-0---5-5-5-5-5-5-5-5----------------------------------|
A|-----------------------------------3-3-3-3-3-3-3-3--3-3-3-3-3-3-3-3-|
E|--------------------------------------------------------------------|

                           (Play This Bit x2)
G|--------------------------------------------------------------------|
D|-3-3-3-3-3-3-3-3---5-5-5-5-5-5-5-5----------------------------------|
A|-----------------------------------3-3-3-3-3-3-3-3--3-3-3-3-3-3-3-3-|
E|--------------------------------------------------------------------|

G|-------------------------------------------------------------------|
D|-3-3-3-3-3-3-3-3---5-5-5-5-5-5-5-5-----------------3-3-3-3-3-3-3-3-|
A|-----------------------------------3-3-3-3-3-3-3-3-----------------|
E|-------------------------------------------------------------------|

G|-------------------------------------------------------------------|
D|-0-0-0-0-0-0-0-0---5-5-5-5-5-5-5-5-----------------3-3-3-3---------|
A|-----------------------------------3-3-3-3-3-3-3-3---------3-3-3-3-|
E|-------------------------------------------------------------------|

Middle 8 (Single Notes)
G|-------------------------------------------------|
D|-------------------------------------------------|
A|-0------------------0----------------------------|
E|-----------3-----------------3--------1--------3-|

Interlude:                     (Play This Bit x2)
G|-------------------------------------------------------------------|
D|-----------------3-3-3-3---------3-3-3-3-------------------5-5-5-5-|
A|-3-3-3-3-3-3-3-3---------3-3-3-3---------3-3-3-3---5-5-5-5---------|
E|-------------------------------------------------------------------|


Chorus: (Repeat Chorus To Fade/End)
G|-------------------------------------------------------------------|
D|-----------------3-3-3-3---------3-3-3-3-------------------5-5-5-5-|
A|-3-3-3-3-3-3-3-3---------3-3-3-3---------3-3-3-3---5-5-5-5---------|
E|-------------------------------------------------------------------|

🎁☃❄🎄🎅🎁☃❄🎄🎅🎁☃❄🎄🎅🎁☃❄🎄🎅

Almost there ...

Sign in to get your own page with links to favourite songs and more. You are just one click away...

Login with Facebook Login with Google