Log in

One click and you are in

Login with Facebook Login with Google

Why sign up and log in

Guitar Tabs Explorer
The Ballroom Thieves guitar tabs for Sea legs

Guitar tabs

Tuning: Standard (E A D G B E)

Key: A chord diagramE MajorE

Difficulty: Intermediate
Intro:

e|--2-4-2h4p2------|-------------------|
B|--0---------5-4--|--2-4-2h4p2--------|
G|--4--------------|--4---------4-3----|
D|--4--------------|--4-------------4--|
A|-----------------|-------------------|
E|-----------------|-------------------|

 Verse:
e|---------------------------------------------------|---------------------------------------------------|
B|---------------------------------------------------|---------------------------------------------------|
G|------1-----1-----1-----1-----3-----3-----3-----3--|------1-----1-----1-----1-----3-----3-----3-----3--|
D|----4-----4-----4-----4-----4-----4-----4-----4----|----4-----4-----4-----4-----4-----4-----4-----4----|
A|--------2-----------2-----------2-----------2------|--------2-----------2-----------2-----------2------|
E|--0-----------0-----------2-----------2------------|--0-----------0-----------2-----------2------------|


e|---------------------------------------------------|-----------------------------|
B|---------------------------------------------------|-----------------------------|
G|------1-----1-----1-----1-----3-----3-----3-----3--|------4-----4-----4-----4----|
D|----4-----4-----4-----4-----4-----4-----4-----4----|----4-----4-----4-----4------|
A|--------2-----------2-----------2-----------2------|--------2-----------2--------|
E|--0-----------0-----------2-----------2------------|--4-----------4--------------|


e|-----------------------------|
B|-----------------------------|
G|------4-----4-----4-----4----|
D|----4-----4-----4-----4------|
A|--------2-----------2--------|
E|--4-----------4--------------|

Vocalizations:
e|------2-----2-----2-----2--------------------------|-----------------------------------------------------|
B|----2-----2-----2-----2----------------------------|-----------------------------------------------------|
G|------------------------------4-----4-----4-----4--|------4-----4-----4-----4-----4-----4-----4-----4----|
D|----------------------------4-----4-----4-----4----|----4-----4-----4-----4-----4-----4-----4-----4------|
A|--------2-----------2-----------2-----------2------|--------1-----------1-----------2-----------2--------|
E|--0-----------0-----------4-----------4------------|--2-----------2-----------4-----------4--------------|


e|------2-----2-----2-----2--------------------------|-----------------------------------------------------|
B|----2-----2-----2-----2----------------------------|-----------------------------------------------------|
G|------------------------------4-----4-----4-----4--|------4-----4-----4-----4-----4-----4-----4-----4----|
D|----------------------------4-----4-----4-----4----|----4-----4-----4-----4-----4-----4-----4-----4------|
A|--------2-----------2-----------2-----------2------|--------1-----------1-----------1-----------1--------|
E|--0-----------0-----------4-----------4------------|--2-----------2-----------2-----------2--------------|


Chorus:
e|------2-----2-----2-----2-----2-----2-----2-----2--|---------------------------------------------|
B|----2-----2-----2-----2-----2-----2-----2-----2----|---------------------------------------------|
G|---------------------------------------------------|------4-----4-----4-----4-----4-----4-----4--|
D|---------------------------------------------------|----4-----4-----4-----4-----4-----4-----4----|
A|--------2-----------2-----------2-----------2------|--------2-----------2-----------2------------|
E|--0-----------0-----------0-----------0------------|--4-----------4-----------4-----------4------|


e|---------------------------------------------------|-----------------------------------------------------|
B|---------------------------------------------------|-----------------------------------------------------|
G|------4-----4-----4-----4-----4-----4-----4--------|------1-----1-----1-----1-----1-----1-----1-----1----|
D|----4-----4-----4-----4-----4-----4-----4----------|----4-----4-----4-----4-----4-----4-----4-----4------|
A|--------1-----------1-----------1------------------|--------2-----------2-----------2-----------2--------|
E|--2-----------2-----------2-----------2------------|--0-----------0-----------0-----------0--------------|

Chordy Bit: 2:55
e|---------------------------------------------------|-----------------------------------------------------|
B|---------------------------------------------------|-----------------------------------------------------|
G|--1--1-------------------3--3----------------------|--1--1-------------------3--3------------------------|
D|--4--4-------------------4--4----------------------|--4--4-------------------4--4------------------------|
A|--2--2-------------------2--2----------------------|--2--2-------------------2--2------------------------|
E|--0--0-------------------0--0----------------------|--0--0-------------------0--0------------------------|

                                                                       Fourth Time let ring
e|---------------------------------------------------|-----------------------------------------------------|
B|---------------------------------------------------|-----------------------------------------------------|
G|--1--1-------------------3--3----------------------|--4--4-------------------4--4------------------------|
D|--4--4-------------------4--4----------------------|--4--4-------------------4--4------------------------|
A|--2--2-------------------2--2----------------------|--2--2-------------------2--2------------------------|
E|--0--0-------------------0--0----------------------|--4--4-------------------4--4------------------------|





Intro

Verse x2
Vocalizations

Verse x2

Chorus x2

Verse x3 (EXCEPT REPEAT FINAL MEASURE IN VERSE THE THIRD TIME THROUGH)

Chorus x2 (SECOND TIME THROUGH REPEAT LAST TWO MEASURES)

Verse/Chordy Bit x4

Verse (continue until end)


***********************************

| h   Hammer-on
| p   Pull-off

***********************************

Other versions of Sea Legs

Sea legsChords

Almost there ...

Sign in to get your own page with links to favourite songs and more. You are just one click away...

Login with Facebook Login with Google