Log in

One click and you are in

Login with Facebook Login with Google

Why sign up and log in

Guitar Tabs Explorer
Bakermat bass tabs for Walk that walk

Bass tabs

Tuning: Standard (E A D G)

Bass Riff:

Repeated through whole song

G|---7-------------|
D|-----------------|
A|/5---5-5-7-8-x-8-|
E|-----------------|

G|-----------------|
D|---8-------------|
A|-----------------|
E|/6---6-6-6-5-5---|

G|---7-------------|
D|-----------------|
A|/5---5-5-7-8-x-8-|
E|-----------------|

G|-------------------5|
D|---8---------7------|
A|---------------0h3--|
E|/6---6-6-6-5--------|


************************************

| x  Dead note
| h  Hammer-on

************************************

Almost there ...

Sign in to get your own page with links to favourite songs and more. You are just one click away...

Login with Facebook Login with Google