Log in

One click and you are in

Login with Facebook Login with Google

Why sign up and log in

Guitar Tabs Explorer
Badly Drawn Boy guitar chords for Epitaph

Guitar chords with lyrics

Intro:

A chord diagramD5D5 A chord diagramDsus2Dsus2 D+ A chord diagramDsus2Dsus2
A chord diagramD5D5 A chord diagramDsus2Dsus2 D+ A chord diagramDsus2Dsus2
A chord diagramD5D5 A chord diagramDsus2Dsus2 D+ A chord diagramDsus2Dsus2
A chord diagramD5D5 A chord diagramDsus2Dsus2 D+ A chord diagramDsus2Dsus2
Verse 1:

A chord diagramD MajorD        D+             Bm/D   A chord diagramD7D7      A chord diagramG6G6
   Please   don't leave me     wanting more
  Bmadd11        A chord diagramG6G6
I hope you never die
        Bmadd11        A chord diagramG6G6
There's no need to say   why
     A chord diagramA7A7             A7b13
Just promise that you'll


Verse 2:

A chord diagramD MajorD       D+     Bm/D    A chord diagramD7D7      A chord diagramG6G6
   Try      to give me all you can
     Bmadd11       A chord diagramG6G6
I'll never ask for more
        Bmadd11              A chord diagramG6G6
There's new life through the door
    A chord diagramA7A7               A7b13
The cradle rocks and


Verse 3:
A chord diagramD MajorD         D+    Bm/D      A chord diagramD7D7        A chord diagramG6G6
   Falls     as new fruit fills the trees
   Bmadd11      A chord diagramG6G6
Cements the melody
   Bmadd11       A chord diagramG6G6
To signify we're free
    A chord diagramA7A7           A7b13
Our troubles passing

Solo:

A chord diagramD MajorD D+ Bm/D A chord diagramD7D7 A chord diagramG6G6 Bmadd11 A chord diagramG6G6 Bmadd11 A chord diagramG6G6 A chord diagramA7A7 A7b13 A7add13


Verse 4:

A chord diagramD MajorD          D+      Bm/D   A chord diagramD7D7     A chord diagramG6G6
   Through    decaying,   simple times
     Bmadd11              A chord diagramG6G6
I'll tread your tail with pride
      Bmadd11       A chord diagramG6G6
C'est maintenant decide
     A chord diagramA7A7         A7b13
I've nothing better


Verse 5:

A chord diagramD MajorD        D+             Bm/D   A chord diagramD7D7      A chord diagramG6G6
   Please   don't leave me     wanting more
  Bmadd11        A chord diagramG6G6
I hope you never die
        Bmadd11        A chord diagramG6G6
There's no need to say   why
     A chord diagramA7A7             A7b13
Just promise that you'll


Outro:

Dadd11 A chord diagramDsus4Dsus4 A chord diagramDsus2Dsus2 A chord diagramD5D5 A chord diagramDsus4Dsus4 A chord diagramD MajorD
Try

___


Solo:

    A chord diagramD MajorD                      D+                     Bm/D
e|----------------------|----------------------|-----------------------|
B|----------------------|----------------------|-----------------------|
G|----------------------|----------------------|--------------4-----4--|
D|--5-------4--------4--|--5-----4------5----5-|--7--------7-----7-----|
A|----------------------|----------------------|-----------------------|
E|----------------------|----------------------|-----------------------|

    A chord diagramD7D7                      A chord diagramG6G6                      Bmadd11
e|-----------------------|-----------------------|-----------------------------|
B|-----------------------|-----------------------|-----------------------------|
G|--6---7----7-----------|--7----4---------------|-----------------------------|
D|--------------4-----4--|------------4----------|-----------------------4-----|
A|-----------------------|---------------5----5--|--7----5--5----5----5-----5--|
E|-----------------------|-----------------------|-----------------------------|

    A chord diagramG6G6                      Bmadd11                           A chord diagramG6G6
e|-----------------------|---------------------------------|-----------------------|
B|-----------------------|---------------------------------|-----------------------|
G|--7----4---------------|---------------------------------|--7----4---------------|
D|------------4----------|---------------------------4-----|------------7----------|
A|---------------5----5--|--5g7----5--7----5------5-----5--|---------------5----5--|
E|-----------------------|---------------------------------|-----------------------|

    A chord diagramA7A7                    A7b13              A7add13    A chord diagramD MajorD
e|---------------------|-----------------------------|-------------------||
B|---------------------|-----------------------------|-------------------||
G|---------------------|-----------------------------|-------------------||
D|---------------------|------------2/4------5--4----|-------------------||
A|--7----5-----7-------|-----------------5--------5--|--5----------------||
E|---------------------|-----------------------------|-------------------||


Outro:

    Dadd11                 A chord diagramDsus4Dsus4                  A chord diagramDsus2Dsus2
e|-----------------0----|-----------------0----|-----------------0----|
B|----------------------|----------------------|----------------------|
G|------------2---------|------------2---------|------------2---------|
D|-------6--------------|-------5--------------|-------4--------------|
A|--5-------------------|--5-------------------|--5-------------------|
E|----------------------|----------------------|----------------------|

                       (A chord diagramD5D5)     (A chord diagramDsus4Dsus4)      A chord diagramD MajorD
e|-------------------|--5--------3--------|--2--||
B|--3----------------|--------------------|--3--||
G|-------------------|--------------------|--2--||
D|-------------------|--------------------|--0--||
A|-------------------|--------------------|-----||
E|-------------------|--------------------|-----||

Almost there ...

Sign in to get your own page with links to favourite songs and more. You are just one click away...

Login with Facebook Login with Google