Log in

One click and you are in

Login with Facebook Login with Google

Why sign up and log in

Guitar Tabs Explorer
Badflower tabs for Johnny wants to fight

Guitar tabs

Drop A chord diagramC#C# tuning


Intro
D#---------------------------------|
A#---------------------------------|
F#---------------------------------|
C#-----4-------2-------0-------2---|(bend)  x4
G#---------1-1-----2-2-----1-1-----|
C#-0-0-----------------------------|


Verse
D#---------------------------------|
A#---------------------------------|
F#---------------------------------|
C#-----4-------2-------0-------2---|(bend)  x4
G#---------1-1-----2-2-----1-1-----|
C#-0-0-----------------------------|


Pre chorus
D#---------------------------------|
A#---------------------------------|
F#---------------------------------|
C#-----4-------2-------0-------2---|(bend)
G#---------1-1-----2-2-----1-1-----|
C#-0-0-----------------------------|


Chorus
D#---------------------------------|
A#---------------------------------|
F#---------------------------------|  x4
C#---------------------------------|
G#-----5-------4-------9-------5---|
C#-0-0-----4-4-----9-9-----5-5-----|

Verse
D#---------------------------------|
A#---------------------------------|
F#---------------------------------|
C#-----4-------2-------0-------2---|(bend)  x4
G#---------1-1-----2-2-----1-1-----|
C#-0-0-----------------------------|


Pre chorus
D#---------------------------------|
A#---------------------------------|
F#---------------------------------|
C#-----4-------2-------0-------2---|(bend)
G#---------1-1-----2-2-----1-1-----|
C#-0-0-----------------------------|


Chorus
D#---------------------------------|
A#---------------------------------|
F#---------------------------------|  x4
C#---------------------------------|
G#-----5-------4-------9-------5---|
C#-0-0-----4-4-----9-9-----5-5-----|


Bridge
D#---------------------------------    ---------------------------------|
A#---------------------------------    ---------------------------------|
F#--------------------------------- x3 ---------------------------------|
C#---------------------------------    ---------------------------------|
G#-----4-------9-------5-------5---    -----4-------9-------5-------5---|
C#-4-4-----9-9-----5-5-----0-0-----    -4-4-----9-9-----5-5-----5-5-----|


Pre chorus
D#---------------------------------|
A#---------------------------------|
F#---------------------------------|
C#-----4-------2-------0-------2---|(bend)
G#---------1-1-----2-2-----1-1-----|
C#-0-0-----------------------------|


Chorus
D#---------------------------------|
A#---------------------------------|
F#---------------------------------|  x8
C#---------------------------------|
G#-----5-------4-------9-------5---|
C#-0-0-----4-4-----9-9-----5-5-----|

Almost there ...

Sign in to get your own page with links to favourite songs and more. You are just one click away...

Login with Facebook Login with Google