Log in

One click and you are in

Login with Facebook Login with Google

Why sign up and log in

Guitar Tabs Explorer
Badfinger bass tabs for No matter what

Bass tabs with lyrics

Tuning: EADG

Time signature: 4/4

r = rest (listen for duration)
\ = slide (high to low)

*My tabs are meant to be read in conjunction with listening to the song.
In other words, there are no specific notations to account for note/rest duration.
However, you will find that I've made an attempt to strategically space the notes and
rests within their respective measures in order to represent the appropriate durations.

 GUITAR INTRO

G|--------------------------------|--------------------------------|
D|--------------------------------|--------------------------------|
A|--------------------------------|--------------------------------|
E|--------------------------------|--------------------------------|


                   "No matter  what  you ..."
|--------------------------------|--------------------------------|
|--------------------------------|7-r-----------------------------|
|------------------------19\-----|--------------------------------|
|--------------------------------|--------------------------------|



VERSE 1
         2x                2x
||--------------------------------||--------------------------------||
||7-r---------7-------7-----------||------------------------2---4---||
||------------------------7\------||2-r---------2-------2-----------||
||--------------------------------||--------------------------------||

         2x
||--------------------------------||--------------------------------|
||--------------------------------||7---7---7---7-------7-----------|
||5-----------7-------7---7-------||------------------------5---7---|
||------------0-------------------||--------------------------------|


  "No matter  what  you ..."
|--------------------------------|
|--------------------------------|
|7-r-----------------------------|
|--------------------------------|



VERSE 2
         2x
||--------------------------------||--------------------------------|
||7-r---------7-------7-----------||------------------------2---4---|
||------------------------7\------||2-r---------2-------2-----------|
||--------------------------------||--------------------------------|


|-----------/7-------6-----------|
|------------------------9---7---|
|2-r-----------------------------|
|--------------------------------|


         2x                2x
||--------------------------------||--------------------------------||
||--------------------------------||7---7---7---7-------7-----------||
||5-----------7-------7---7-------||------------------------5---7---||
||------------0-------------------||--------------------------------||




CHORUS

 "Knock down the old gray wall..."
|--------------------------------|--------------------------------|
|--------------------------------|--------------------------------|
|9---9---9---9---9---9---9---9---|--------------------------------|
|--------------------------------|7---7---7---7---7---7---7---7---|


|--------------------------------|--------------------------------|
|--------------------------------|--------------------------------|
|7---7---7---7---7---7---7---7---|--------------------------------|
|--------------------------------|5---5---5---5-------0---5---0---|


|--------------------------------|--------------------------------|
|------------------------7---9---|--------------------------------|
|5---5---5---5---5---5-----------|--------------------------------|
|--------------------------------|7---7---7---7---7---7---7---7---|


|--------------------------------|--------------------------------|
|----------------7-------7-------|--------------------------------|
|----7---9---9-------9-------9---|--------4---4---7---7---9---7---|
|5-------------------------------|5---5---------------------------|


|--------------------------------|--------------------------------|
|--------------------------------|--------------------------------|
|9---9---9---9---9---9---9---9---|------------------------9-------|
|--------------------------------|7---7---7---7---7---7-------7---|


|------------------------9-------|--------------------------------|
|--------------------------------|7---7---7---7-----------7-------|
|7---7---7---7---7---7-------7---|--------------------7-------7---|
|--------------------------------|--------------------------------|


|--------------------------------|--------------------------------|
|--------------------------------|--------------------------------|
|5---5---5---5---5---5---5---5---|--------------------------------|
|--------------------------------|7---7---7---7---7---7---7---7---|


|--------------------------------|--------------------------------|
|5---5---5---5---5---5---5---5---|--------------------------------|
|--------------------------------|7-r-----------------------------|
|--------------------------------|--------------------------------|


VERSE 2


VERSE 2 (during solo)


CHORUS


VERSE 1


OUTRO
         2x                2x
||--------------------------------||--------------------------------||
||----------------------------7---||7---7---7---7-------7-----------||
||5-----------7-------7---9-------||------------------------5---7---||
||------------0-------------------||--------------------------------||


         2x
||--------------------------------||--------------------------------|
||----------------------------7---||7---7---7---7-------7-----------|
||5-----------7-------7---9-------||------------------------5---7---|
||------------0-------------------||--------------------------------|


|--------------------------------|
|--------------------------------|
|--------------------------------|
|5-------------------------------|


       (PLEASE RATE THIS TAB / LEAVE COMMENT)

Other versions of No Matter What

No matter what-(Ver. 2)Bass tabs

Almost there ...

Sign in to get your own page with links to favourite songs and more. You are just one click away...

Login with Facebook Login with Google