Log in

One click and you are in

Login with Facebook Login with Google

Why sign up and log in

Guitar Tabs Explorer
Badfinger bass tabs for No matter what (Ver. 2)

Bass tabs

  • Tuning: Standard tuning
  • Difficulty: Beginner
-------------------------------------------------------------------
           Artist - Badfinger
          ********************
          Song - No Matter What
          ***********************
            Album - No Dice
           *****************
          Tabbed By - Ayreon77
          **********************
-------------------------------------------------------------------

Tuning = Standard

00:06

INTRO
******
  h s
G|-7-9\----|
D|-------7-|
A|---------|
E|---------|


------------------------------

CHORUS
*******
G|----------|----------|----------|----------|------|------|--------------|
D|-7--7~~---|-7--7~~---|--------4-|--------4-|------|------|-7--7~~-------|
A|--------7-|--------7-|-2--2~~---|-2--2~~---|-5--7-|-5--7-|--------5-6-7-|
E|----------|----------|----------|----------|------|------|--------------|

00:25                    h
G|------------|-----------|---------h--|---4-6-4------|------|------|------------|--h--------s-|
D|-7--7~~-7---|-7--7~~--s-|--------2-4-|----------7-4-|------|------|-7--7-7---7-|-5-7-7--7-7\-|
A|----------7-|--------7\-|-2--2~~-----|-2------------|-5--7-|-5--7-|--------7---|-------------|
E|------------|-----------|------------|--------------|------|------|------------|-------------|

------------------------------
00:42

BRIDGE
*******
G|----------------|----------------|----------------|-2-2-2-2--2---2---|
D|-4-4--4-4-4-4-4-|----------------|-2-2--2-2-2-2-2-|------------2---2-|
A|----------------|-2-2--2-2-2-2-2-|----------------|------------------|
E|----------------|----------------|----------------|------------------|

00:50
G|---------------2-|----------------------------------|-------------------|
D|-0-0-0-0-0-0-4---|----------------s-7-7-7-7-7-7-7-7-|-7-------------4---|
A|-----------------|-2-2-2-2-2-2-2-2\-----------------|-------4-4-7-7---7-|
E|-----------------|----------------------------------|---5-5-------------|

00:58
G|----------------|----------------|----------------|-2-2-2-2--2---2---|
D|-4-4--4-4-4-4-4-|----------------|-2-2--2-2-2-2-2-|------------2---2-|
A|----------------|-2-2--2-2-2-2-2-|----------------|------------------|
E|----------------|----------------|----------------|------------------|

01:06
G|-----------------|-----------------|-----------------|---|
D|-0-0-0-0-0-0-0-0-|-----------------|-5-5-5-5-5-5-5-5-|---|
A|-----------------|-2-2-2-2-2-2-2-2-|-----------------|-7-|
E|-----------------|-----------------|-----------------|---|


-------------------------------
01:15

CHORUS
*******                h
G|----------|----------|----------|---4-6-4------|------|------|------------|----------|
D|-7--7~~---|-7--7~~---|--------4-|----------7-4-|------|------|-7--7-7---7-|-7--7-7---|
A|--------7-|--------7-|-2--2~~---|-2------------|-5--7-|-5--7-|--------7---|--------7-|
E|----------|----------|----------|--------------|------|------|------------|----------|


-------------------------------
01:31

SOLO
*****
G|----------|----------|----------|----------|------|------|------------|--------|
D|-7--7~~---|-7--7~~---|--------4-|--------4-|------|------|-7--7-7---7-|-7--7-7-|
A|--------7-|--------7-|-2--2~~---|-2--2~~---|-5--7-|-5--7-|--------7---|--------|
E|----------|----------|----------|----------|------|------|------------|--------|


------------------------------
01:48

BRIDGE
*******
G|----------------|----------------|----------------|-2-2-2-2--2---2---|
D|-4-4--4-4-4-4-4-|----------------|-2-2--2-2-2-2-2-|------------2---2-|
A|----------------|-2-2--2-2-2-2-2-|----------------|------------------|
E|----------------|----------------|----------------|------------------|

00:50
G|-------------2---|------------------s----------------|-------------------|
D|-0-0-0-0-0-4---4-|-----------------2\7-7-7-7-7-7-7-7-|-7-------------4---|
A|-----------------|-2-2-2-2-2-2-2-2-------------------|-------4-4-7-7---7-|
E|-----------------|-----------------------------------|---5-5-------------|

00:58
G|----------------|----------------|----------------|-2-2-2-2--2---2---|
D|-4-4--4-4-4-4-4-|----------------|-2-2--2-2-2-2-2-|------------2---2-|
A|----------------|-2-2--2-2-2-2-2-|----------------|------------------|
E|----------------|----------------|----------------|------------------|

01:06
G|-----------------|-----------------|-----------------|---|
D|-0-0-0-0-0-0-0---|-----------------|-5-5-5-5-5-5-5-5-|---|
A|---------------4-|-2-2-2-2-2-2-2-2-|-----------------|-7-|
E|-----------------|-----------------|-----------------|---|


------------------------------
02:20

CHORUS
*******                h
G|----------|----------|----------|---4-6-4------|------|------|------------|
D|-7--7~~---|-7--7~~---|--------4-|----------7-4-|------|------|-7--7-7---7-|
A|--------7-|--------7-|-2--2~~---|-2------------|-5--7-|-5--7-|--------7---|
E|----------|----------|----------|--------------|------|------|------------|

02:37
G|------|------|------------|-----------|------|------|------------------|
D|------|------|-7--7-7---7-|-7--7-7--s-|------|------|-7--7-7---7~~~~~~-|
A|-5--7-|-5--7-|--------7---|--------7\-|-5--7-|-5--7-|--------7---------|
E|------|------|------------|-----------|------|------|------------------|


ENJOY.............

Other versions of No Matter What

No matter whatBass tabs

Almost there ...

Sign in to get your own page with links to favourite songs and more. You are just one click away...

Login with Facebook Login with Google