Log in

One click and you are in

Login with Facebook Login with Google

Why sign up and log in

Guitar Tabs Explorer
Badbadnotgood bass tabs for Time moves slow

Bass tabs with lyrics

Tuning: Standard (E A D G)


Intro:

   F#m7 Amaj7 Gm7          F#m7 Amaj7
G|----------------------------------------------|
D|----------------------------------------------|
A|----------------------------------------------|
E|----2----5----3---------------------2----5----|

   Bm7               F#m7 Amaj7 Dmaj7             F#m7 Amaj7
G|---------------------------------------------------------------------------------------|
D|---------------------------------------------------------------------------------------|
A|----2------------2--2---------2---------------5-----------5--5---------5---------------|
E|--------------2------------2--------2----5-------------5------------5h7------2----5----|

   Bm7               F#m7 Amaj7 Dmaj7             F#m7 Amaj7
G|---------------------------------------------------------------------------------------|
D|---------------------------------------------------------------------------------------|
A|----2------------2--2---------2---------------5-----------5--5---------5---------------|
E|--------------2------------2--------2----5-------------5------------5--------2----5----|


Verse 1:    - "I found you at the window again"

   Bm7               F#m7 Amaj7 Dmaj7             F#m7 Amaj7
G|---------------------------------------------------------------------------------------|
D|---------------------------------------------------------------------------------------|
A|----2------------2--2---------2---------------5-----------5--5---------5---------------|
E|--------------2------------2--------2----5-------------5------------5h7------2----5----|

   Bm7               F#m7 Amaj7 Dmaj7             F#m7 Amaj7
G|---------------------------------------------------------------------------------------|
D|---------------------------------------------------------------------------------------|
A|----2------------2--2---------2---------------5-----------5--5---------5---------------|
E|--------------2------------2----5-4-2----5-------------5------------5--------2----5----|



Pre-Chorus:  - "Time moves slow"

   Bm7               F#m7 Amaj7 Dmaj7             F#m7 Amaj7
G|---------------------------------------------------------------------------------------|
D|---------------------------------------------------------------------------------------|
A|----2------------2--2---------2---------------5------------5-5---------5---------------|
E|--------------2------------2----5p0-2----5-------------5----5-------5h7--5p0-2----5----|

   Bm7               F#m7 Amaj7 Dmaj7             F#m7 Amaj7
G|---------------------------------------------------------------------------------------|
D|---------------------------------------------------------------------------------------|
A|----2------------2--2------4-2----------------5---------5-5------5-5--5----------------|
E|--------------2-----------2-2-------2----5-----------5---5---5h7-----5-5-0h2-2----5----|


Chorus:    - "Running away is easy"

   Cmaj7     Bm7     F#m7        Amaj7
G|-----------------------4-2----------------------------------------|
D|----------------------4----------------4-4p2----------------------|
A|----3----3---0-1--2--------2-0-------4------4---------------------|
E|--------3-----------------------2---------------2----5----5--2----|

   Cmaj7     Bm7     F#m7        Amaj7
G|----------5------------4-2----------------------------------------|
D|--------5---5--------4----4------------4-4------------------------|
A|----3---------3-0-2---------0---------4-----4-0----0-2---0-1-2----|
E|--------------------------------2--2------------2-----------------|

   Cmaj7     Bm7     F#m7        Amaj7
G|------------4-5---------4-2---------------------------------------|
D|---------5-5---0------4------4-----------4-2----------------------|
A|----3---3---------2--------------------------4-----0-2---0-1-2----|
E|--------------------------------2--2--2---------2-----------------|

   Cmaj7     Bm7     F#m7        Amaj7
G|----------------------------------------------------------|
D|-----------------------------------------4-4--------------|
A|----3--3--3--5-0--2--2--2p0-----------4-------------------|
E|--------------3-------------2p0-2--2--------0-1-2----5----|


Verse 2:    - "But what was I to do "

   Bm7               F#m7 Amaj7 Dmaj7             F#m7 Amaj7
G|---------------------------------------------------------------------------------------|
D|---------------------------------------------------------------------------------------|
A|----2------------2--2---------2---------------5-----------5--5---------5---------------|
E|--------------2------------2--------2----5-------------5------------5h7------2----5----|

   Bm7               F#m7 Amaj7 Dmaj7             F#m7 Amaj7
G|-------------------------------------------------------------------7-------------------|
D|------------------------------------------------------------------9-9------------------|
A|----2------------2--2---------2--4p0----------5------------5--5--------5---------------|
E|--------------2------------2--------2----5-------------5-7---7-----------5-4-2----5----|

   Bm7               F#m7 Amaj7 Dmaj7             F#m7 Amaj7
G|---------------------------------------------------------------------------------------|
D|---------------------------------------------------------------------------------------|
A|----2------------2--2-------0-2---------------5-----------5--5---------5---------------|
E|--------------2------------2--------2----5-------------5------------5h7------2----5----|

   Bm7               F#m7 Amaj7 Dmaj7             F#m7 Amaj7
G|---------------------------------------------------------------------------------------|
D|---------------------------------------------------------------------------------------|
A|----2------------2--2------0h2-2-0------------5---------5--5-5--------5----------------|
E|--------------2-----------2-------4-2----5-------------5--7---------5----5-4-2----5----|


Pre-Chorus:  - "Time moves slow"

   Bm7               F#m7 Amaj7 Dmaj7             F#m7 Amaj7
G|---------------------------------------------------------------------------------------|
D|---------------------------------------------------------------------------------------|
A|----2-----------2---2------0h2---------------------5---5--------5----------------------|
E|--------------2---2-------2-----5-4-2----5------5h7--7--------5----------5-4-2----5----|

   Bm7               F#m7 Amaj7 Dmaj7             F#m7 Amaj7
G|---------------------------------------------------------------------------------------|
D|---------------------------------------------------------------------------------------|
A|----2----------0-2-2--------0-2---------------5---------5-5------5-5--5----------------|
E|--------------2---2-------2---------2----5-----------5---5---5h7-----5-5-0h2-2----5----|



Chorus:

   Cmaj7     Bm7     F#m7        Amaj7
G|----------5------------4-2----------------------------------------|
D|--------5---5--------4----4-------------4-------------------------|
A|----3---------3-0-2---------0---------4---4----------0-2-0-1-2----|
E|--------------------------------2--2--------2-0-2--2--------------|

   Cmaj7     Bm7     F#m7        Amaj7
G|------------------------------------------------------------------|
D|---------------------------------------4-----------4-------7------|
A|----3----3---0-1--2---0h2p0----------4---4-------4---0---7---0----|
E|--------3--------------------0--2----------2-0-2-------5----------|

   Cmaj7     Bm7     F#m7        Amaj7
G|---------5-5-----------4-4--4-------------------------------------|
D|--------5---5---------4----4-0--4--4-4p2--------------------------|
A|----3----------0--2---------------------4--0-------0-2-2-0-1-2----|
E|---------------------------------------------0--2-----------------|

   Cmaj7     Bm7     F#m7        Amaj7
G|----------------------------------------------------------|
D|-----------------------------------------4-4--------------|
A|----3--3--3--5-0--2--2--2p0-----------4-------------------|
E|--------------3-------------2p0-2--2--------0-1-2----5----|



************************************

| h  Hammer-on
| p  Pull-off

************************************

Almost there ...

Sign in to get your own page with links to favourite songs and more. You are just one click away...

Login with Facebook Login with Google