Log in

One click and you are in

Login with Facebook Login with Google

Why sign up and log in

Guitar Tabs Explorer
Bad Company bass tabs for Rock and roll fantasy

Rock And Roll Fantasy bass tab by Bad Company

Bad Company bass tabs for Rock and roll fantasy

Bass tabs

Bad Company – Rock 'N' Roll Fantasy


Intro; 1 bar rest

Pre-verse1 (C=12th fret);
G|----------------|----------------|----------------|----------------|
D|----------------|----------------|----------------|----------------|
A|----------------|----------------|----------------|----------------|
E|0---0---0---0---|0---0---0---0---|0---0---0---0---|0---0---0---0-C\|
Verse1(Here come the jesters, 1, 2, 3);
G|----------------|----------------|----------------|----------------|
D|----------------|--------------7-|----------------|--------------7-|
A|----------------|3-3-3-3-5-5-5---|----------------|3-3-3-3-5-5-5---|
E|0-0-0-0-0-0-0-0-|----------------|0-0-0-0-0-0-0-0-|----------------|

G|----------------|----------------|----------------|----------------|
D|----------------|--------------7-|----------------|----------------|
A|----------------|3-3-3-3-5-5-5---|----7---------7-|----------------|
E|0-0-0-0-0-0-0-0-|----------------|0-0---7-0-0-7---|--------------C\|

Pre-verse2
- play as Pre-verse1


Verse2(Here come the dancers one by one);
- play as Verse1


Chorus1 (It's all part of my rock and roll fantasy);
G|----------------|----------------|----------------|----------------|
D|----------------|----------------|----------------|----------------|
A|3---------------|--2---5---5---5-|------5-5-4-4-2-|------2-2-4-4---|
E|--0-3-5---5-0-5-|3---3-------5---|5-0-5-----------|5-0-5---------3-| 2x

Break;
G|----------------|----------------|
D|----------------|----------------|
A|----2-------2---|----2-------2---|
E|0-------0-------|0-------0-------|

G|----------------|----------------|----------------|----------------|
D|----------------|----------------|----------------|----------------|
A|----------------|5------------57-|----------------|5-7-7-5-7-------|
E|0-2-2-2-2-0-0-0-|--0-0-0-0-57----|0-2-2-2-2-0-0-0-|----------0-0-0-| 2x


Chorus2 (It's all part of my rock and roll fantasy);
- play as Chorus1

Pre-verse3
- play as Pre-verse1


Verse3(Put out the spotlights, one and all);
- play as Verse1


Chorus3 (It's all part of my rock and roll fantasy);
- play as Chorus1


Chorus4 (It's all part of my rock and roll fantasy);
- play as Chorus1


Outro;
G|----------------|----------------|        G|----------------|
D|----------------|----------------|        D|----------------|
A|------5-5-4-4-2-|------2-2-4-4---|        A|----------------|
E|5-0-5-----------|5-0-5---------3-| 4x end on A; E|5---------------|

Almost there ...

Sign in to get your own page with links to favourite songs and more. You are just one click away...

Login with Facebook Login with Google