Log in

One click and you are in

Login with Facebook Login with Google

Why sign up and log in

Guitar Tabs Explorer
Bach Johann Sebastian guitar tabs for Wtc prelude no 2

Wtc Prelude No 2 tab by Bach Johann Sebastian

Bach Johann Sebastian guitar tabs for Wtc prelude no 2

Guitar tabs

This is a little riff in (I believe) the second prelude of Bach's The Well-
Tempered Clavier.  It's worthy of gods with truckloads of distortion.  If
I can remember correctly, it's in A chord diagramC majorC or A chord diagramC#C# minor.


--------------------------------
--------------------------------
-----------------4---7-4--------
-------3-6-3---3---3-----6-3---3
-----5-------7---------------7--
-3-7----------------------------
 1 4 2 1 3 1 4 1 2 1 4 1 3 1 4 1 <-Fingers

--------------------------------
-----------------4---8-4--------
---------5---------5-----5------
-------5---5-4-5-----------6-5-6
---3-6--------------------------
-3------------------------------
 1 1 4 3 3 3 1 2 1 2 4 1 2 3 2 3 <-Fingers

---------------------5----------
---------4-------7-----7-4------
-------5---5-4-5---5-------5-4-5
-----4--------------------------
--------------------------------
-3-5----------------------------
 1 3 1 2 1 2 1 2 4 1 3 4 1 2 1 2 <-Fingers

-jq

Almost there ...

Sign in to get your own page with links to favourite songs and more. You are just one click away...

Login with Facebook Login with Google