Log in

One click and you are in

Login with Facebook Login with Google

Why sign up and log in

Guitar Tabs Explorer
Bach Johann Sebastian bass tabs for Wtc prelude no 2

Wtc Prelude No 2 bass tab by Bach Johann Sebastian

Bach Johann Sebastian bass tabs for Wtc prelude no 2

Bass tabs with lyrics

Composer: J.S. Bach

Tabbed/Transcribed By: Patrick McKinney
(boarderpat99@yahoo.com)

This is an awesome song to play on bass.
If you would like to see a standard notation version
of this song
visit www.finaleshowcase.com and type in
"electric bass" in the search engine in the middle of
the page.
You will have to download a special program at the
site to view it.
It also plays the song so you can hear how it goes.
Also, all notes are sixteenth notes, but are played
like
eigth notes. The only exception is the first note in
the last measure (g),
which is an eight note (held like a quarter note).


G:-----0----9-0----9-----0----9-0----9-:
D:-------10-----10---------10-----10---:
A:---7-----------------7---------------:
E:-8-----------------8-----------------:


G:-------7-10---7-10-------7-10---7-10-:
D:---0-7------7--------0-7------7------:
A:-------------------------------------:
E:-8-----------------8-----------------:


G:-----0-7-10-0-7-10-----0-7-10-0-7-10-:
D:---0-----------------0---------------:
A:-------------------------------------:
E:-7-----------------7-----------------:

G:-----0----9-0----9-----0----9-0----9-:
D:-------10-----10---------10-----10---:
A:---7-----------------7---------------:
E:-8-----------------8-----------------:


G:-----------14-------14-----------14-------14-:
D:--------14-------14-----------14-------14----:
A:--7-12-------12----------7-12-------12-------:
E:8----------------------8---------------------:


G:---------7-----7---------7-----7-:
D:---0---7-----7-----0---7-----7---:
A:-----9-----9---------9-----9-----:
E:-8---------------8---------------:


G:-----0----12-0----12-----0----12-0----12-:
D:---0---12------12------0---12------12----:
A:-----------------------------------------:
E:-7-------------------7-------------------:


G:-------0-5---0-5-------0-5---0-5-:
D:-----2-----2---------2-----2-----:
A:-2-3-------------2-3-------------:
E:---------------------------------:


G:-------0-5---0-5-------0-5---0-5-:
D:-----2-----2---------2-----2-----:
A:-0-3-------------0-3-------------:
E:---------------------------------:


G:---------5-----5---------5-----5-:
D:-----0-4---0-4-------0-4---0-4---:
A:-5-0-------------5-0-------------:
E:---------------------------------:


G:-------0-4---0-4-------0-4---0-4-:
D:-----0-----0---------0-----0-----:
A:---2---------------2-------------:
E:-3---------------3---------------:


G:-------0-6---0-6-------0-6---0-6-:
D:-----2-----7---------2-----7-----:
A:---1---------------1-------------:
E:-3---------------3---------------:


G:---------7-----7---------7-----7-:
D:-----0-7---0-7-------0-7---0-7---:
A:---0---------------0-------------:
E:-1---------------1---------------:


G:---------4-----4---------4-----4-:
D:-----0-3---0-3-------0-3---0-3---:
A:---------------------------------:
E:-1-4-------------1-4-------------:


G:-------0-5---0-5-------0-5---0-5-:
D:---------------------------------:
A:-----3-----3---------3-----3-----:
E:-0-3-------------0-3-------------:


G:---------------------------------:
D:---------3-----3---------3-----3-:
A:-----0-3---0-3-------0-3---0-3---:
E:-0-1-------------0-1-------------:


G:----------10------10----------10------10-:
D:-0---7-10----7-10----0---7-10----7-10----:
A:---8-------------------8-----------------:
E:-----------------------------------------:


G:-----0---10-0---10-----0---10-0---10-:
D:---0---9------9------0---9------9----:
A:-------------------------------------:
E:-3-----------------3-----------------:


G:-----0----9-0----9-----0----9-0----9-:
D:-------10-----10---------10-----10---:
A:---7-----------------7---------------:
E:-8-----------------8-----------------:


G:---0------9------9---0------9------9-:
D:-----8-10---8-10-------8-10---8-10---:
A:-------------------------------------:
E:-8-----------------8-----------------:


G:----------9------9----------9------9-:
D:-----7-10---7-10-------7-10---7-10---:
A:---8-----------------8---------------:
E:-8-----------------8-----------------:


G:-------5-8---5-8-------5-8---5-8-:
D:---4-7-----7-------4-7-----7-----:
A:-0---------------0---------------:
E:---------------------------------:


G:----------8------8----------8------8-:
D:-5---9-10---9-10---5---9-10---9-10---:
A:---6-----------------6---------------:
E:-------------------------------------:


G:----------7------7----------7------7-:
D:---3-9-10---9-10-----3-9-10---9-10---:
A:-------------------------------------:
E:-4-----------------4-----------------:


G:-----0---7-0---7-----0---7-0---7-:
D:---3---9-----9-----3---9-----9---:
A:---------------------------------:
E:-3---------------3---------------:


G:-----0----9-0----9-----0----9-0----9-:
D:---2---10-----10-----2---10-----10---:
A:-------------------------------------:
E:-3-----------------3-----------------:


G:-----0----10-0----10-----0----10-0----10-:
D:---0---10------10------0---10------10----:
A:-----------------------------------------:
E:-3-------------------3-------------------:


G:-----0---10-0---10-----0---10-0---10-:
D:---0---9------9------0---9------9----:
A:-------------------------------------:
E:-3-----------------3-----------------:


G:-------------11-------11-------------11-------11-:
D:----------10-------10-------------10-------10----:
A:-10----12-------12-------10----12-------12-------:
E:----11----------------------11-------------------:


G:-----0----12-0----12-----0----12-0----12-:
D:---2---11------11------2---11------11----:
A:-----------------------------------------:
E:-3-------------------3-------------------:


G:-----0----10-0----10-----0----10-0----10-:
D:---0---10------10------0---10------10----:
A:-----------------------------------------:
E:-3-------------------3-------------------:


G:-----0---10-0---10-----0---10-0---10-:
D:---0---9------9------0---9------9----:
A:-------------------------------------:
E:-3-----------------3-----------------:


G:------------10-------------------------:
D:-------7-10----10-7-10-7---7-----------:
A:-0-3-8-------------------8---8----8----:
E:-------------------------------10---10-:


G:---0---7-10-7---7---0-------------9----:
D:-----9--------9---9---9-0------0--10---:
A:---------------------------8-7---------:
E:-3--------------------------------8----:

Almost there ...

Sign in to get your own page with links to favourite songs and more. You are just one click away...

Login with Facebook Login with Google