Log in

One click and you are in

Login with Facebook Login with Google

Why sign up and log in

Guitar Tabs Explorer
Bach Johann Sebastian guitar tabs for Jesu joy of mans desiring

Jesu Joy Of Mans Desiring tab by Bach Johann Sebastian

Bach Johann Sebastian guitar tabs for Jesu joy of mans desiring

Guitar tabs with lyrics

This is "Jesu, Joy of Man's Desiring" by
Johann Sebastian Bach. I found the piano
music for it a couple of years ago, and
modified it for guitar (it wasn't possible to
play it exactly as written). You may want to find
a recording of the music before trying to play it.
This song is great for weddings on a classical guitar!

Tune your guitar to drop A chord diagramD MajorD (A chord diagramD MajorD A chord diagramA augmentedA A chord diagramD MajorD A chord diagramG+G A chord diagramBB A chord diagramE MajorE) before
starting!

I didn't take the time to write out which fingers
I use where, but if you ask nicely, I might be
able to help you with a few bars. My e-mail address is
ps_grant@hotmail.com

    - Paul Grant

E---------------0-----3-2-3---------------0-------|
B-------0-3-1-1---3-3-------3-0-----0-1-3---3-1-0-|
G---0-2-------------------------0-2---------------|
D-------------------------2-----------------------|
A-------------------2-----------------0-----2-----|
D-5-----4-----2-----------------2-----------------|


E---------------------------------------0-----3-2-|
B---0---------------1-0---0-----0-3-1-1---3-3-----|
G-2---0---0-2-----2-----2---0-2-------------------|
D-------4-----0-4---------------------------------|
A-3-----5-----------------------------------2-----|
D-------------0-----------5-----4-----2-----------|


E-3-----------------------------------3-----------|
B---3-0-----0---3-1-0-------------0-3---3-0---0-3-|
G-------0-2-----------2-0---0---0-----------0-----|
D-2-----------2-----------0---4-------------------|
A-------------3-----4-----5-----------------------|
D-------2---------------------0-5-----------------|

E-------------------------------------------------|
B-0---1-3-3-3-1---0---------------1-0-1-----------|
G-0---0-2-0---0-2-0-2-------2-0-2-------2-------2-|
D-----------4-------4-0-2-4---------------4---4---|
A-------------------------------------------0-----|
D-5-4-2-4-2-0-2-4-5-0-----------0-----0-----------|


E-----------------------------|
B-1-0---0---1-3---0---0-1-0---|
G-----2-0---0-2---0-2-----0-2-|
D---------------------------4-|
A-------------2-2---3-----5---|
D-0-----5-4-2-----2---------0-|


E---------------0-----3-2-3---------------0-------|
B-------0-3-1-1---3-3-------3-0-----0-1-3---3-1-0-|
G---0-2-------------------------0-2---------------|
D-------------------------2-----------------------|
A-------------------2-----------------0-----2-----|
D-5-----4-----2-----------------2-----------------|


E---------------------------------------0-----3-2-|
B---0---------------1-0---0-----0-3-1-1---3-3-----|
G-2---0---0-2-----2-----2---0-2-------------------|
D-------4-----0-4---------------------------------|
A-3-----5-----------------------------------2-----|
D-------------0-----------5-----4-----2-----------|

                         rit. ------------------>
E--3----------------------------------------------||
B-----3--0--------0-----3--1--0-----------------0-||
G-----------0--2-----------------2--0-----0-----0-||
D--2-----------------2-----------------0-----4--0-||
A--------------------3--------4--------5----------||
D-----------2--------------------------------0--5-||

Almost there ...

Sign in to get your own page with links to favourite songs and more. You are just one click away...

Login with Facebook Login with Google