Log in

One click and you are in

Login with Facebook Login with Google

Why sign up and log in

Guitar Tabs Explorer
Bach Johann Sebastian guitar tabs for Bwv 722 invention in c major

Bwv 722 Invention In C Major tab by Bach Johann Sebastian

Bach Johann Sebastian guitar tabs for Bwv 722 invention in c major

Guitar tabs

Invention No. 1 in A chord diagramC majorC Major, J.S. Bach (BWV 772)
Tabulated for solo guitar in 2003
by Kaze(hazeon@flatspace.org)
(mail me if you want a wider 3-measure format of this tab)

***********************************************************
*This file represent's the author's own study of the work.*
*  It is not a reproduction of any published sheet music. *
***********************************************************

Play all notes at a steady rhythm, unless notated
by an 'h' (hammer-on) or 'P' (pull-off). Play those notes faster,
while adhering to the main rhythm. At the end of measure 14 the '\'
indicates to play the connected notes faster than the others, as well.
    |-------------------------------|---------------------3---1---3----|
    |---------------------1-0-----1-|-3-----0-1---0---3----------------|
(1) |---------------0---------------|-0-0-2-----2---0------------------|
    |---0-2-3-0-2-------0-2-3-0-2---|----------------------------------|
    |-3-----------3---3-----------3-|---------------------0-2-3-0-2----|
    |-------------------------------|-----3-------------3------------3-|


    |---5-3-----3---5-3-1-------0---1-|-0-------------------------------|
    |-5-----6-5---6-------5-3-1---3---|---3-1-0---1-0-3-1-0-----------0-|
(3) |---------------------------------|---------2-----------2-0---2-0---|
    |---------------------------------|-------------------------4-------|
    |-3---2---3---0---2-------0---2---|-3---0-----------0---2---3-------|
    |---------------------3-----------|---------2---3-------------------|


    |-------------------------------|---------------0---------3-------|
    |---------1---3-0---------------|---0---1-0-3-1---3-0h1-3---0-----|
(5) |-2-------0-----0-2-0-----0---2-|-0---2---0-------------------2p0-|
    |---0-2-4---2-4-0-----4-2---4---|-2---4-------2-------------0-0---|
    |-------5-----------2---3---5---|-----------------2-----3---------|
    |-------------------------------|---------------------------------|


    |---------------------------------|---------------------------------|
    |-----------------------0-----0---|---------------------0-1-3-0-1---|
(7) |-0-----------------0-2---5-2-0-0-|-2-------0---------2-----------2-|
    |-----------------0---5---5-------|-4-0-2-4---2-4-0-----0-------0---|
    |-----0-2-3-0-2-------------------|-----------------0-------3-------|
    |---3-----------3-----------------|---------------------------------|


    |----------------------------------|--------------------0-----------0-|
    |-0------------------3-1-0---1-0-3-|-1--------------------3-1-0-3-2---|
(9) |---0------------0---------2-------|---2-0-----0---2-0--------0-------|
    |-----3-2-0-3-2----3---2---3---0---|-2-----3-2---3--------3-------2---|
    |----------------------------------|----------------------------------|
    |-3--------------------------------|----------------------------------|

    |-------------0---1---------------|---------------------------------|
    |-3---2---3---------------0---2---|-3---------------0-------3-------|
(11)|---3-2-0---2-0-3-2-0-2---------0-|---------1---2-------------------|
    |-3-------3-----------3-2-0-3-2---|-3-2-4-----0---2-0---------------|
    |---------------------------------|-----5-3-2---3-----3-2-0---2-0-3-|
    |---------------------------------|-------------------------4-------|


    |-----------------0-----0---------|---5-4-7-5-0-1-----1-0--------|
    |-------------------3-1---3-1-0-3-|---------------3-------3-1-0\-|
(13)|---------2---0-------------------|-5---------------1----------2-|
    |---2-4-6-0-4-2-2-----------------|-------0---2-0-3-2-------2----|
    |-2---------------3-2-0-----0---2-|-0-3-2---3-----------0--------|
    |-----------------------3-2---4---|------------------------------|


    |---5-3-----3---5-3---------------|---------5-----------------------|
    |-------6-5---6-------------------|-8-5-6-8---6-8-5-6---------------|
(15)|-2---------------0---------------|-0-------------------------------|
    |-------------------2-0-----0---2-|-0---------------0-------0-------|
    |-0---0-----------------3-2---4---|-------------------0-2-3---2-3-0-|
    |---------------------------------|---------------------------------|


    |-1-3-1-0---1-0-3-1---------------|-1---0-1-3-0-1---0----------------|
    |---------3-----------------------|---3-----------3------------------|
(17)|---------------------------------|----------------------------------|
    |-------------------0-----------0-|----------------------------------|
    |-2---------------2---3-2-0-3-2---|-3---------------3----0-1-3-0-1---|
    |---------------------------------|--------------------3-----------3-|

    						  ten
    |-0-----0-1---0-----0-1-3-5---3-0-|-----5-7-8----7---8-------0--------|
    |---1-3-----3---1-3---------6-----|-6-8-------10---8-----8-------3-1--|
(19)|---------------------------------|--------------------------0--------|
    |---------------------0-----------|-----3--------0-----0-------2-3-0--|
    |-0---1---0---------------3---1---|---------7--------7---7-8----------|
    |-------------3---1---------------|-5---------------------------------|


    |----------------------------------|---------------------------------|
    |-1------------------0-1-----1---0-|-1p0h1---------------------------|
(21)|---3-2-0----2-0-3-2-------0-------|-0-------------------------------|
    |-2--------3---2---3-0-2-3-0---3---|-2-------------------------------|
    |-----3----5-----------------------|-3-------------------------------|
    |------------------------------3---|---------------------------------|

Almost there ...

Sign in to get your own page with links to favourite songs and more. You are just one click away...

Login with Facebook Login with Google