Log in

One click and you are in

Login with Facebook Login with Google

Why sign up and log in

Guitar Tabs Explorer
Bach Johann Sebastian guitar tabs for Bwv 114 minuet in g major

Bwv 114 Minuet In G Major tab by Bach Johann Sebastian

Bach Johann Sebastian guitar tabs for Bwv 114 minuet in g major

Guitar tabs

Minuet in A chord diagramG+G Major from Notebook for Anna Magdalena Bach, BWV Anh. 114,
IV.
transcribed by Stany

hope you enjoy

Deticated specially to Sarah.K. of W.Falls NY(who went away to college)
e|------------------------------|------------------------|-0-------------
A chord diagramBB|-3-----------------0-----1----|-3----------------------|---------------
A chord diagramG+G|---------0----2---------------|------------0-----0-----|---------------
A chord diagramD MajorD|------------------------------|------------------------|---------------
A chord diagramA augmentedA|-------------------0----------|-2----------------------|-3-------------
A chord diagramE MajorE|-3----------------------------|------------------------|---------------


e-----------0----2----|-3----------------------|--------------------------
B-1----3--------------|------------------------|-1----------3----1--------
G---------------------|------------0-----0-----|--------------------------
D---------------------|------------------------|--------------------------
A---------------------|-2----------------------|-0------------------------
E---------------------|------------------------|--------------------------


e-----------|--------------------------------|----------------------------
B-0---------|-0----------1----0--------------|------------------0---------
G------2----|----------------------2----0----|-------0-----2--------------
D-----------|--------------------------------|-4--------------------------
A-----------|--------------------------------|-5-----2--------------------
E-----------|-3------------------------------|------------------3---------

e------|--------------------------------|---------------------------------
B------|--------------------------------|-3-----------------0-----1-------
G-0----|-2------------------------------|---------0----2------------------
D------|-0----------0-------------------|---------------------------------
A------|-----------------3----2----0----|-------------------0-------------
E------|--------------------------------|-3-------------------------------


e|--------------------|--0--------------------0----2----|--3-------------
A chord diagramBB|--3-----------------|-------------1----3--------------|----------------
A chord diagramG+G|--------0-----0-----|---------------------------------|--------0-------
A chord diagramD MajorD|--------------------|---------------------------------|----------------
A chord diagramA augmentedA|--------2-----------|--3------------------------------|--2-----3-------
A chord diagramE MajorE|--3-----------3-----|---------------------------------|----------------


e-----------------|-------------------------------|-----------------------
B-----------------|--1-------3----1----0----------|--0-------1----0-------
G------0----------|--------------------------2----|-----------------------
D-----------------|-------------------------------|-----------------------
A-2----0----------|--0----------------------------|-----------------------
E------------3----|--------------------2----------|--3--------------------


e------------|------------------------------|-------------|--7------------
B------------|--------0---------------------|-------------|---------------
G-2-----0----|--2-----------2----0----------|--0----------|--0------------
D------------|--------0----------0-----4----|-------------|---------------
A-2----------|--3---------------------------|-------------|---------------
E------------|------------------------------|--3----------|---------------


e-3----5----7----3----|--5---------------0----2---------|--3-----0--------
B---------------------|-------------3--------------3----|-----------------
G---------------------|---------------------------------|--------0--------
D---------------------|--4------------------------------|--2--------------
A---------------------|---------------------------------|-----------------
E---------------------|---------------------------------|-----------------


e-2----3----------|-----------------------------|-------------------------
B------------3----|--2----------0----2----------|-------------0----2------
G-----------------|--2--------------------2-----|--2----------------------
D------2----------|-----------------------------|-------------------------
A-----------------|-----------------------------|--0----------------------
E-----------------|-----------------------------|-------------------------


e------0----2----|--3-----2-----0-----|--2-----------------|--------------
B-3--------------|--------------------|--------------2-----|--3-----------
G----------------|--------------------|--------2-----------|--------------
D----------------|--------0-----------|--0-----------------|--0-----------
A----------------|--2-----------4-----|--------------0-----|--------------
E----------------|--------------------|--------2-----------|--------------


e-------------|-------------------------|--0----------------------|-------
B-------------|--3----------------------|-------------------------|-------
G-------------|--------0----------0-----|--------0----------0-----|-------
D-0-----------|--------0-----4----------|--------2-----4----------|-------
A-------3-----|--2----------------2-----|--3----------------3-----|-------
E-------------|-------------------------|-------------------------|-------


e-------------------|-------------------------------|---------------------
B-3-----1-----0-----|-------------------------------|---------------------
G-------------------|--2-------0---------0----2-----|---------------------
D-------------------|--0------------4---------------|--0-------2----4-----
A-2-----0-----------|-------------------------------|---------------------
E-------------3-----|-------------------------------|---------------------


e-----------------|--------------------|-------------------------|--------
B------------0----|--1-----0-----------|--0-----3----------------|--------
G-0----2----------|--------0-----2-----|--0----------0-----------|--------
D------4----------|--2-----------4-----|-------------------4-----|--------
A-----------------|--------------------|-------------2-----5-----|--------
E-----------------|--------------------|-------------------------|--------


e----------------------|
B----------------------|
G-0--------------------| (o)==#
D------------0---------|
A-2--------------------|
E-3----------------3---|

~Peace out~

Almost there ...

Sign in to get your own page with links to favourite songs and more. You are just one click away...

Login with Facebook Login with Google