Log in

One click and you are in

Login with Facebook Login with Google

Why sign up and log in

Guitar Tabs Explorer
Bach Johann Sebastian guitar tabs for Bwv 1067 badinerie

Bwv 1067 Badinerie tab by Bach Johann Sebastian

Bach Johann Sebastian guitar tabs for Bwv 1067 badinerie

Guitar tabs

Johan Sebastian Bach
            Orchestral Suite No.2 in B-, BWV.1067 - Badinerie

Transcribed by Christian Ottem (christian_ottem@hotmail.com)
This is one of my favorites indeed, it’s Badinerie from one of Bachs’s
orchestral suites which I’ve arranged for guitar.

Have fun!

A chord diagramE MajorE||--7--10--7-----7-----|----------------|--------------------|
A chord diagramBB||------------7-----7--|-----7----------|--------------------|
A chord diagramG+G||---------------------|--7-----7-------|------7-----6-4-6-4-|
A chord diagramD MajorD||---------------------|-----------9----|----9----9----------|
A chord diagramA augmentedA||---------------------|----------------|--9-----------------|
A chord diagramE MajorE||---------------------|----------------|--------------------|

-----------------------|--7--10--7-----7-----|----------------|
--------------3---3----|------------7-----7--|-----7----------|
----6-9--6--4---4---4--|---------------------|--7-----7-------|
--8--------------------|---------------------|-----------9----|
-----------------------|---------------------|----------------|
-----------------------|---------------------|----------------|


-------------------|--7----------------|-------------------|
-------------------|-------------------|--7--7----7---7-7--|
--7--7--7-4-7-4-7--|-----7--7-9-7-9-6--|--------7---7------|
-------------------|-------------------|-------------------|
-------------------|-------------------|-------------------|
-------------------|-------------------|-------------------|

--10----------------|------5-------------|------7---------------|
------7--7-8-7-8-6--|----7----7--9-7-9-7-|--6-9----9--10-9-10-9-|
--------------------|--6-----------------|----------------------|
--------------------|--------------------|----------------------|
--------------------|--------------------|----------------------|
--------------------|--------------------|----------------------|


----5--------7------|----9--------10------|----10-9--7--9----------|
--7---7-6--7---7-6--|--7---7-6--7----7-6--|--7------------10-9--7--|
--------------------|---------------------|------------------------|
--------------------|---------------------|------------------------|
--------------------|---------------------|------------------------|
--------------------|---------------------|------------------------|


----------------------||---2--5--2-----2-----|----------------|
--10--9-10-9-10-7-----||------------2-----2--|-----2----------|
---------------------*||*--------------------|--2-----2-------|
---------------------*||*--------------------|-----------4----|
----------------------||---------------------|----------------|
----------------------||---------------------|----------------|


--------0-----2--|--5--3--2--3--0--|-----7--------------|----------------|
--1--0-----4-----|-----------------|--8-----8--5--8--5--|-----5----------|
-----------------|-----------------|--------------------|--6-----6-------|
-----------------|-----------------|--------------------|-----------7----|
-----------------|-----------------|--------------------|----------------|
-----------------|-----------------|--------------------|----------------|


------2-----0---0---|----0-3-0--2-0-2-0-|----2---------3-------|
----3----3----3---3-|--2----------------|--3---3--2--3---3--2--|
--2-----------------|-------------------|----------------------|
--------------------|-------------------|----------------------|
--------------------|-------------------|----------------------|
--------------------|-------------------|----------------------|


----5---------7-------|----7-5---5----------|------------------|
--3-------------------|--------8---7--5-----|--7--5-7-5-7------|
------7--6--7---7--6--|--7---------------7--|-------------7----|
----------------------|---------------------|------------------|
----------------------|---------------------|------------------|
----------------------|---------------------|------------------|


-------------------|--10----------------|-------------------|
--7--7--7-8-7-8-7--|------7--7-8-7-8----|----------7---7----|
-------------------|-----------------9--|--9--9--9---9---9--|
-------------------|--------------------|-------------------|
-------------------|--------------------|-------------------|
-------------------|--------------------|-------------------|


--9----------------|--7--10--7----------|----7-5----------|
--------5-7-5-7-3--|------------10-8----|--------8-7-5----|
-----9-------------|--------------------|-----------------|
-------------------|--------------------|-----------------|
-------------------|--------------------|-----------------|
-------------------|--------------------|-----------------|


----------------------|----------------|---------------|--------------------|
----8-7-5-----5-8--5--|----------------|-------------2-|--5--3-2-3--------5-|
----------7-5---------|--5-4-5-4-3-----|--------4--3---|------------4-6-7---|
----------------------|-------------4--|--5--4---------|--------------------|
----------------------|----------------|---------------|--------------------|
----------------------|----------------|---------------|--------------------|


---------7-----|--0---------------||
--7--3-7----7--|------------0-----||
---------------|----7-6-7-6------*||
---------------|-----------------*||
---------------|------------------||
---------------|------------------||

Have fun!

NB: I’ve now started a mailinglist os classical tabs. If you sign up, you’ll
get one free transcription every week, just gimmie a mail for signing up or
requests!

Almost there ...

Sign in to get your own page with links to favourite songs and more. You are just one click away...

Login with Facebook Login with Google