Log in

One click and you are in

Login with Facebook Login with Google

Why sign up and log in

Guitar Tabs Explorer
Bach Johann Sebastian guitar tabs for Bwv 1007a suite no1 in g major prelude

Bwv 1007a Suite No1 In G Major Prelude tab by Bach Johann Sebastian

Bach Johann Sebastian guitar tabs for Bwv 1007a suite no1 in g major prelude

Guitar tabs with lyrics

This is a wonderful piece for guitar and i have transcribed it myself.
I have tried to avoid using open strings.
A chord diagramA augmentedA player can lose a fair amount of control of open
strings.

x2 = bar to be played twice - i couldn't be bothered to type the bar
twice!
s = slide (obviously!)
h = hammer on

             x2             x2
x2
e
||-------------|-------------|-------------|-------------|-------------|
A chord diagramBB
||-----7---7---|-----8---8---|-----8---8---|-----7---7---|-----7---7---|
A chord diagramG+G
||---7---7---7-|---7---7---7-|---6---6---6-|---7---7---7-|---7---7---6-|
A chord diagramD MajorD
||-------------|-------------|-------------|-------------|-------------|
A chord diagramA augmentedA
||-5-----------|-5-----------|-5-----------|-5-----------|-5-----------|
A chord diagramE MajorE
||-------------|-------------|-------------|-------------|-------------|

e||-----------------------------------|-------------------|----------------------
-|
A chord diagramBB||-----7-5-7-------------------------|---5-5-5----5-5-5--|--5-10910-5-5-5-5---5-
-|
A chord diagramG+G||---4-------7-6-7---7-6-7-----------|--7-7-7-7--7-7-7-7-|-6---------7-6-7---6--
-|
A chord diagramD MajorD||-5---------------9---------7-6-----|-6--------6--------|------------------7--7
-|
A chord diagramA augmentedA||-------------------------9------9--|-------------------|-0--------------------
-|
A chord diagramE MajorE||-----------------------------------|-------------------|----------------------
-|

e
||-------------------|---------------------------|-----5-5----------------|
A chord diagramBB
||-------------------|--------------------10975--|------5--5--------------|
A chord diagramG+G
||---767-7----767-7--|--------------7-6--------7-|-6------6----6-9-7-6----|
A chord diagramD MajorD
||-------------------|--67-9-7-6--------9--------|--9-7-----7-9-------9-7-|
A chord diagramA augmentedA
||--9---9-9--9---9-9-|----------9-7--------------|-0----------------------|
A chord diagramE MajorE
||-7--------7--------|-7-------------------------|------------------------|

e ||-----------------------|--------------------------|
A chord diagramBB ||--------------7--5-----|---5-7-8-5------5-7-8-5---|
A chord diagramG+G ||-8---------8----5-5-8--|--4-------4----4-------6--|
A chord diagramD MajorD ||--7-10910-7-7--7---7-7-|-5---------7-5----------9-|
A chord diagramA augmentedA ||-----------------------|--------------------------|
A chord diagramE MajorE ||-7------------5--------|-5-----------2------------|

e ||---------------------------|-------------------------------|
A chord diagramBB ||--2-2-5-2-5-2--2-2-5-2-5-2-|-------------------------------|
A chord diagramG+G ||-3-3----------3-3----------|-7-6-7-6-7-9-6-7-6-------------|
A chord diagramD MajorD ||---------------------------|----9--------------9-7-5-4-----|
A chord diagramA augmentedA ||---------------------------|---------------------------7-5-|
A chord diagramE MajorE ||-4------------4------------|-7-------------7---------------|

e ||----------------------|---------------------|----------------------|
A chord diagramBB ||----------------------|---------------------|----------------------|
A chord diagramG+G ||-----2-2-2-----2-2-2--|----5-5-5-----5-5-5--|-----4-4-4-----4-4-4--|
A chord diagramD MajorD ||---5--5-5-5--5--5-5-5-|---4-4-4-4---4-4-4-4-|---5--5-5-5---5-5-5-5-|
A chord diagramA augmentedA ||-4----------4---------|---------------------|----------------------|
A chord diagramE MajorE ||----------------------|-5---------5---------|-5----------5---------|

e ||---------------------|-------------------------------|
A chord diagramBB ||----8-8-8-----8-8-8--|-----7-5-7---------------------|
A chord diagramG+G ||---6-6-6-6---6-6-6-6-|-----------7-6-----------------|
A chord diagramD MajorD ||---------------------|---7----------9-7-5------------|
A chord diagramA augmentedA ||-5----------5--------|-5------------------9-7-5------|
A chord diagramE MajorE ||---------------------|--------------------------9-7-5|

e
||--------------------------|-----------------------|-------------------------|
A chord diagramBB
||--------------------------|-----------------------|-----5-9-10--------------|
A chord diagramG+G
||----6-7-6-7------6-7--6-7-|------6---6------6---6-|----6----------------6-7-|
A chord diagramD MajorD
||---9---9----6--9----9-----|---7s9-7-9----7s9-7-9--|---7----------4-5-7-9----|
A chord diagramA augmentedA
||--7-----------7-----------|--7----------7---------|--7----------7-----------|
A chord diagramE MajorE
||-6----------6-------------|-5----------5----------|-5----------5------------|

e ||--------------------------5-|-6-5-4-5-5----------------------|
A chord diagramBB ||-5-------5-7-8-5----5-7-8---|-----------8-7-8-8-5------------|
A chord diagramG+G ||--6---6-7-------6-7---------|---------------------6----------|
A chord diagramD MajorD ||---7s9-------9--------------|----------------------9-7-------|
A chord diagramA augmentedA ||----------------------------|-------------------------7-9-10-|
A chord diagramE MajorE ||-5--------------------------|-5---------------5--------------|

e ||---------------------------|------------5------------|
A chord diagramBB ||-----5-7-8-5-7-------------|-------5-7---7-5-6-6-5-5-|
A chord diagramG+G ||----6---------7------------|------7---7-----------8--|
A chord diagramD MajorD ||---7-----------7-5---------|-----7-------------------|
A chord diagramA augmentedA ||--7----------------9-5-7-9-|--5-9-------0------------|
A chord diagramE MajorE ||-5-----------5-------------|-5-----------------------|
e ||--------------------4-5-4-|-5---------------------|
A chord diagramBB ||-5-----------------5------|--5---5----------------|
A chord diagramG+G ||--7-6-7-7---------7-------|---6-6--6--------------|
A chord diagramD MajorD ||---------9-6---6-9--------|----9--7--7-6----------|
A chord diagramA augmentedA ||------------9-7-----------|---------7----9-7-5----|
A chord diagramE MajorE ||-5------------------------|-5-----------------9-7-|

e ||---------------------------|--------------------------|
A chord diagramBB ||---8-7-5-------8-7-5-------|--7-5---------5-----------|
A chord diagramG+G ||--------7-6-5-------7-6-5--|-----7-6-5-----7-6-5------|
A chord diagramD MajorD ||-------------7-----------7-|-5--------7-5--------7-5--|
A chord diagramA augmentedA ||---------------------------|-------------9------------|
A chord diagramE MajorE ||--5----------5-------------|-5-----------5------------|

e ||----------------------|------------------|
A chord diagramBB ||---------5-5-5--5-5-5-|--5-5-5-5-5-5-5-5-|
A chord diagramG+G ||--7-6-5-6-----6--7----|-6---7---6---7----|
A chord diagramD MajorD ||----------7-9------9--|---7---9---7---9--|
A chord diagramA augmentedA ||-7--------------------|------------------|
A chord diagramE MajorE ||-5--------------------|-5----------------|

e ||---------------0--|-----0-0----0-0--0-0-|--0-0-0----0----0---|
A chord diagramBB ||--5-5-5-5-5-5-7-5-|--5-7-8--5-7-8-10-7--|-8-7-8--5-7--5-7--5-|
A chord diagramG+G ||-6-----6-7-9------|-9-------------------|-------9----9----7--|
A chord diagramD MajorD ||---7-9------------|---------------------|--------------------|
A chord diagramA augmentedA ||------------------|---------------------|--------------------|
A chord diagramE MajorE ||-5--------------5-|--------5------------|--------------------|

e ||------------------|-------------------|---3-4-5-6-7-8--9---|
A chord diagramBB ||--5-5-5-5-5-5-5-5-|--5-------3-4-5-6--|-7-5-6-7-8-9-10-11--|
A chord diagramG+G ||-9-7-9-6-7-6-7-4--|-6--4-5-6-5-5-6-7--|-8------------------|
A chord diagramD MajorD ||------------------|---7--7-8----------|--------------------|
A chord diagramA augmentedA ||------------------|-------------------|---------------0--0-|
A chord diagramE MajorE ||------------------|-------5-5-5-5-5-5-|--5-5-5-5-5-5-------|

e ||-10---10-10--10---10-10--|-10---10-10--10---10-10--|
A chord diagramBB ||---7-7--7--7---7-7--7--7-|-------------------------|
A chord diagramG+G ||-------------------------|---9-9--9--9---9-9--9--9-|
A chord diagramD MajorD ||----7-----------7--------|----7-----------7--------|
A chord diagramA augmentedA ||-------------------------|-0-----------0-----------|
A chord diagramE MajorE ||-5-----------5-----------|-------------------------|


e ||-9----9-9--9---9-9--|--10--|
A chord diagramBB ||---8-8-8-8--8-8-8-8-|--7---|
A chord diagramG+G ||--------------------|------|
A chord diagramD MajorD ||----7--------7------|------|
A chord diagramA augmentedA ||--------------------|------|
A chord diagramE MajorE ||-5---------5--------|--0---|

If desired the ending could be arranged like this:-

e ||--7-9h10-10--|
A chord diagramBB ||--5-7----7---|
A chord diagramG+G ||-------------|
A chord diagramD MajorD ||---------0---|
A chord diagramA augmentedA ||----0--------|
A chord diagramE MajorE ||--0----------|
feel free to play around with any of this transcription.....
you might come up with something that sounds even more wonderful..
p.s. apologies if anything incorrect but i couldn't be bothered
to go over it again.....got anything to say about it then
please email me.......john

________________________________________________________________________________

Almost there ...

Sign in to get your own page with links to favourite songs and more. You are just one click away...

Login with Facebook Login with Google