Log in

One click and you are in

Login with Facebook Login with Google

Why sign up and log in

Guitar Tabs Explorer
The Babys bass tabs for You got it

Bass tabs with lyrics

Intro: Electric Bass
       h p ~~~   h  p ~~~       \
G|---------9--11--9-----14--16--14---------------------------|
D|--7---------------------------------16--14-----s---p-------|
A|--------------------------------------------16--14--0------|
E|-----------------------------------------------------------|

Verse 1:
      /                /
G|-----------------------------------------------------------------------h--------------------------------|
D|----------------------------------------------------------------------7--9--7---------------------------|
A|---p----s-------------------------------3-s-5-----------------------------------------------------------|
E|-0-3-0-3--5---0---3-------------------------------------------------------------------------------------|
    You.....u said you'd come around Silk stockings can't be found on my floor no more

     \                       /
G|--------------------------------------------------------------------------------------------------------|
D|-----------------------------------------------------s--------------------------------------------------|
A|--9-7---s------------------------------------------3--5--------------(5)----------------h---------------|
E|------9--5--5--(5)------------0---3---------(3)---------------------------------------0--5-------(5)----|
       You.....You're the one I want to see  You could make me happy if u come and live w/ me



Pre-Chorus:
   \                         \
G|---------------------------------h---------------------s-------------------------------------------------|
D|----s--------------------------7--9--7----------------9--7-----------------------------------------------|
A|--9--7---------5--------5-----------------------------------5-----------------------------------------0--|
E|-------------5-------------------------------------------------------------------------------------------|
 I don't even know that much about losing I've had some bad times I've had some good times I've done okay


G|-------------------------------------h--p--------------------------------------------------------------|
D|--------------h-p------------------7--9--7--------0-5--------------------5---4-------------------------|
A|-------------0-2-0-5--------(5)------------------------------------------------------------------------|
E|---------------------------------------------------------------------------------0---------------------|
  You could take it all from me If u wanted And I'm sure that you'd agree, well I hope that you'd agree



Verse 2:
                                    /        \
G|-------------------------------------------------------------------------------------------------------|
D|---------------------------------------------------------------------------7---------------------------|
A|-------------------------------------------3--5---------------5----5--s--7------9----7-s--5------------|
E|----0-3--5--5------0--3------------3-------------------------------------------------------------------|
   Yeah and you....You opened up my mind I'm standing in the rain Feeling alright

                                   /   /
G|-------------------------------------------------------------------------------------------------------|
D|-----------------------------------------------------------------------7-s-9---------------------------|
A|-----------------------------------------3--5---------------5----7-s-9-------------0--------0----------|
E|-----5--5---------0--3-------------3-------------------------------------------------------------------|
   You...You put a grin across my face. I love the way you taste     I really want you babe


Pre-Chorus 2:
                                               \
G|-------------------------------------------------------------------------------------------------------|
D|-----------------------------------7-h-9-p-7-7---------------------------------------------------------|
A|------0--h--2-p-0--5-------5----------------------------------0--5-----5------------------5-s-4--------|
E|--------------------------------------------------------------------------------------------------5--5-|
   I don't even know that much about you   You've got that magic touch You've really got it down

                /        \                        br 2x
G|--------------------------------------------------------------------------------------------------------|
D|--------------------------------7-h-9-7--7---7-s-5----------------------5----4--------------------------|
A|-----------0--5--------5--7-s-9------------------------------------------------------------7---7-9-7-9--|
E|---------------------------------------------------3-------------3-------------0------------------------|
  I don't even c your face When I want you But I hear you come around Well I know u come around yeah


Break 1: Guitar Solo
                                           /
G|------------------------------------------------------------------------------------------------|
D|------------------------------------p---------------------------------------------7-s-9--7--7---|
A|-----------------------0-5---5----5---7----------------------------------0-5---5----------------|
E|----5---5----0-3---3--------------------5---5-----0-5---5----0-3---3----------------------------|
             Oh, babe  I want you Yeah, yeah yeah ohhhh...How I want you


Pre-Chorus 3:
                  /
G|-----------------------------------------------------------------------------------------------------|
D|----7--5-----------------------7-s-9-7-7-----7-5----------------------------------------------h--7---|
A|------------7--0--5--------5---------------------7-0----5------5-------------------------0---0--7----|
E|-----------------------------------------------------------------------------------------------------|

   I don't even know that much about losin'  u've got that magic touch You've really got it down

                /                              /   br 2x
G|--------------------------------------------------------------------------------------------------------|
D|---------------------------7-s-9---7----7----7-5-----------------5-----------------------s--------------|
A|--------------5--------5-------------------------7-0-----------------------------------5--7----7-9-7-9--|
E|-----------------------------------------------------3--------------------3----2-0----------------------|
  I don't even c your face When I want u But I hear u come around Well I know u come around yeah


Verse 3:
                                     /
G|--------------------------------------------------------------------------------------------|
D|--------------------------------------------------------------------------------------------|
A|-----------------------------------------0---5-------------------5----5-s-7-----------------|
E|-------5---5---0---3-------------3------------------------------------------5---------5-----|
    You.....u said you'd come around Silk stockings can't be found on my floor no more

                                    /             \
G|-------------------------------------------------------------------------------------------------------|
D|--------------------------------------------------------------------7-s-9-7-----------(7)--------------|
A|-----h--------------------------------------0-5-------------(5)----------------------------9-7---------|
E|---0--3--5---5----------0--3-------------3-----------------------------------------------------9-s-7---|
    You.....You're the one I want to see U could make me happy if u come and live w/ me


Break 2:
                          /  \
G|-----------------------------------------------------------------|
D|-----------------------------------------------------------------|
A|---------------------------------0-5------5----5-s-7-s-5---------|
E|----5--5----------0-3-----3------------------------------5--5----|

 Outro / Chorus:
                              /     \
G|--------------------------------------------------------------------------|
D|-----------------------------------------------------7--7-s-9--7----------|
A|---------------------------------0-5------5-----------------------9-s-7---|
E|--0-5--5----------0-3------3------------------0-5-------------------------|
   Baby...You can fall in love. Fall in love again


G|--------------------------------------------------------------------------|
D|--------------------------------------------------------------------------|
A|---------------------------------0-5------5-------------------------------|
E|----5--5----------0-3-------3-----------------0-5----4--3--2--3--4--------|
   Baby...You can fall in love. Fall in love again


G|--------------------------------------------------------------------------|
D|-----------------------------------------------------7------7-------------|
A|---------------------------------0-5------5-------------------------------|
E|----5--5----------0-3------3------------------0-5-------5------5----------|
   Baby...You can fall in love. Fall in love again

G|--------------------------------------------------------------------------|
D|-----------------------------------------------------7------7-------------|
A|---------------------------------0-5------5-------------------------------|
E|--0-5--5----------0-3------3------------------0-5-------5------5----------|
   Baby...You can fall in love. Fall in love again

As the song fades add lib using alternating outro lines
ⓘ Bass guitar tab for 'You Got It' by The Babys, a hard rock band formed in 1974 from London, United Kingdom . The Babys is known for their gritty rock/pop music.

Almost there ...

Sign in to get your own page with links to favourite songs and more. You are just one click away...

Login with Facebook Login with Google