Log in

One click and you are in

Login with Facebook Login with Google

Why sign up and log in

Guitar Tabs Explorer
The Babys tabs for Looking for love

Guitar tabs with lyrics

Looking For Love (Live)
The Babys: Anthology

Gtr I (E A D G B E)=20


Riff 1                 Bridge
                            3x         5x
|---------------------------||---------||
|--------------------------o||---O----o||
|-2---7-4-5---2----5-2-4----||---4-----||
|-2---7-4-5---2----5-2-4----||---4-----||
|--------------------------o||--------o||
|---------------------------||---------||


  Riff 2

|------------------------------------------------------------------|
|------------------------------------------------------------------|
|--2--2S--7---4S--5---5--7-7-7---2---2S--5---2S--4----4--5-5-5-----|
|--2--2S--7---4S--5---5--7-7-7---2---2S--5---2S--4----4--5-5-5-----|
|------------------------------------------------------------------|
|------------------------------------------------------------------|


|---------------------------------------------------|
|---------------------------------------------------|
|-2--2S--7---4S--5---5--7-7-7---2---2S--5---2S--4---|
|-2--2S--7---4S--5---5--7-7-7---2---2S--5---2S--4---|
|---------------------------------------------------|
|---------------------------------------------------|



(Chords after 2nd solo: Says I'm Looking for Love)

|-----------|
|-----------|
|--2----7---|
|--2----7---|
|-------5---|
|-----------|


End riff variation (of end of riff 2) =20

                                                          ~   ~
|----------------------------------------------------------------------|
|----------------------------------------------------------------------|
|--2---2S--7----4S--5----5--7-7-7-----2---2S--5---2S--4---4---4---2----|
|--2---2S--7----4S--5----5--7-7-7-----2---2S--5---2S--4---4---4---2----|
|----------------------------------------------------------------------|
|----------------------------------------------------------------------|









Duration 🏷Legend
---------------
W - whole; H - half; Q=20
- quarter; A chord diagramE MajorE - 8th; S=20
- 16th; T - 32nd; X - 64th; a - acciaccatura
+ - note tied to previous; . - note dotted; .. - note double dotted
Uncapitalized letters represent notes that are staccato (1/2 duration)
Irregular groupings are notated above the duration line
Duration letters will always appear directly above the note/fret number=20
it represents the duration for. =20
Duration letters with no fret number below them represent rests. =20
Multi-bar rests are notated in the form Wxn,=20
where n is the number of bars to rest for. =20
Low melody durations appear below the staff

Tablature 🏷Legend
----------------
 h   - hammer-on
 p   - pull-off
 b   - bend
 pb  - pre-bend
 r   - bend release (if no number after the r, then release immediately)
 /\  - slide into or out of (from/to "nowhere")
 s   - legato slide
 S   - shift slide
<n>  - natural harmonic
[n]  - artificial harmonic
n(n) - tapped harmonic
 ~   - vibrato
 tr  - trill
 T   - tap
 TP  - trem. picking
 PM  - palm muting
\n/  - tremolo bar dip; n =3D amount to dip
 \n  - tremolo bar down
 n/  - tremolo bar up
/n\  - tremolo bar inverted dip
 =3D   - hold bend; also acts as connecting device for hammers/pulls
 <>  - volume swell (louder/softer)
 x   - on rhythm slash represents muted slash
 o   - on rhythm slash represents single note slash

Misc 🏷Legend
-----------
 |  - bar
||  - double bar
||o - repeat start
o|| - repeat end
*|  - double bar (ending)
 :  - bar (freetime)
 $  - Segno
 &  - Coda

Tempo markers -=20

<E/E./Q/Q./H/H.> =3D BPM(8/16=3Ds8/s16), where s8 =3D swing 8ths, s16 =
=3D swing 16ths


* Generated using Power Tab Editor by Brad Larsen - =
http://powertab.guitarnetwork.org*
ⓘ Guitar tab for 'Looking For Love' by The Babys, a hard rock band formed in 1974 from London, United Kingdom . The Babys is known for their gritty rock/pop music.

Almost there ...

Sign in to get your own page with links to favourite songs and more. You are just one click away...

Login with Facebook Login with Google