Log in

One click and you are in

Login with Facebook Login with Google

Why sign up and log in

Guitar Tabs Explorer
The Babys bass tabs for Isnt it time

Bass tabs with lyrics

[Verse]

 Falling in love was the last thing I had on my mind.............

  H H H H W
G|---------------------------------------------------------------------------|
D|---------------------------------------------------------------------------|
A|----2-----3----------------------------------------------------------------|
E|-3-----2-----3-------------------------------------------------------------|

[Pre-Chorus]

 Sitting here all alone Just tryin' to decide Whether to go on alone Or stay by your side

  S S S Q Q Q Q  S S S Q  S S S Q Q Q Q S S S Q
G|----------------------------------------------------------------------------|
D|------------------------------------------------3-2-------------------------|
A|--------------------3-2-0---------------------------3-----------------------|
E|-0-1-2-3--3--3--3---------3---0-1-2-3--3--3--3--------3---------------------|


 Then I stop myself because I know I could cry

  S S S Q Q Q Q  S S S Q
G|-----------------------------------------------------------------------------|
D|-----------------------------------------------------------------------------|
A|--------------------3-2-0----------------------------------------------------|
E|-0-1-2-3--3--3--3---------3--------------------------------------------------|


 I just can't find the answers to the questions that keep going through my mind Isn't it time?

  H  H  H  H  H
E|------------------------------------------------------------------------------------------|
D|-2----0-----------------------------------------------------------------------------------|
A|----------3---2---0-----------------------------------------------------------------------|
E|------------------------------------------------------------------------------------------|


[Chorus]

 (Isn't it time it took time to wait) (Falling in love could be your mistake)

  E E E E E E Q  S E E  E E Q E E S S S
G|---------------------------------------------------------------------------------|
D|---------------------------------------------------------------------------------|
A|-------1--1--------------------3--3--0-------------------------------------------|
E|-3--3--------1--1--1---0-1--1-----------3--3--0-1-2------------------------------|


 (Isn't it time you took time to wait) (Falling in love could be your mistake)

   Q Q Q Q Q Q Q S Q Q  Q Q S S S S
G|-------------------------------------------------------------------------------|
D|-------------------------------------------------------------------------------|
A|-------1--1-------------------3--3--3-2-0--------------------------------------|
E|-3--3--------1--1--1--0-1--1-------------3-------------------------------------|


[Outro]

repeat chorus to fade out

   Q Q Q Q Q Q Q S Q Q  Q Q S S S S
G|--------------------------------------------------------------------------------|
D|--------------------------------------------------------------------------------|
A|-------1--1-------------------3--3--3-2-0---------------------------------------|
E|-3--3--------1--1--1--0-1--1-------------3--------------------------------------|


************************************

| x  Dead note
| g  Grace note
| (n) Ghost note
| h  Hammer-on
| p  Pull-off
| r  Release
| >  Accented note
| t  Tapping
| b  Bend
| br Bend release
| pb Pre-bend
| pbr Pre-bend release
| /  Slide up
| \  Slide down
| ~  Vibrato
| s  Slap
| P  Pop
| PM Palm mute
| TR Trill
| N  Tremolo
| S  Sixteenth note
| Q  Quarter note
| H  Half note
| W  Whole note
ⓘ Bass guitar tab for 'Isnt It Time' by The Babys, a hard rock band formed in 1974 from London, United Kingdom . The Babys is known for their gritty rock/pop music.

Almost there ...

Sign in to get your own page with links to favourite songs and more. You are just one click away...

Login with Facebook Login with Google