Log in

One click and you are in

Login with Facebook Login with Google

Why sign up and log in

Guitar Tabs Explorer
Babymetal guitar tabs for Karate

Guitar tabs

+ + + + + + + + + +
e|---------------------------------------------------------------------------|
b|---------------------------------------------------------------------------|
A chord diagramG+G|---------------------------------------------------------------------------|
A chord diagramD MajorD|-------------------------(Starts just with 5th fret natural harmonics)-----|
A chord diagramA augmentedA|---------------------------(Similar to Catch me if you can)----------------|
A chord diagramE MajorE|---------------------------------------------------------------------------|
A chord diagramBB|--5-5-5-5-5-5-5-5-5-5------------------------------------------------------|

Opening Riff:                           * * *  *  * * *  *  * * *
e|---------------------------------------------------------------------------|
b|---------------------------------------------------------------------------|
A chord diagramG+G|---------------------------------------------------------------------------|
A chord diagramD MajorD|---------------------------------------------------------------------------|
A chord diagramA augmentedA|------2----------2---------------------------------------------------------|
A chord diagramE MajorE|---------------0--------------5-------3-3-3--3--3-3-3--3--3-3-3------------|
A chord diagramBB|--3~------1--3-------3~--2b3-----3~---2-2-2--2--2-2-2--2--2-2-2------------|

                                                       +
e|---------------------------------------------------------------------------|
b|---------------------------------------------------------------------------|
A chord diagramG+G|---------------------------------------------------------------------------|
A chord diagramD MajorD|---------------------------------------------------------------------------|
A chord diagramA augmentedA|------2----------2-----------------------------------2---------------------|
A chord diagramE MajorE|---------------0--------------5--------------------------------------------|
A chord diagramBB|--3~------1--3-------3~--2b3-----3~---x-x-x-x-x--3-1-----------------------|

                                        * * *  *  * * *  *  * * *
e|---------------------------------------------------------------------------|
b|---------------------------------------------------------------------------|
A chord diagramG+G|---------------------------------------------------------------------------|
A chord diagramD MajorD|---------------------------------------------------------------------------|
A chord diagramA augmentedA|------2----------2---------------------------------------------------------|
A chord diagramE MajorE|---------------0--------------5-------3-3-3--3--3-3-3--3--3-3-3------------|
A chord diagramBB|--3~------1--3-------3~--2b3-----3~---2-2-2--2--2-2-2--2--2-2-2------------|

e|---------------------------------------------------------------------------|
b|---------------------------------------------------------------------------|
A chord diagramG+G|---------------------------------------------------------------------------|
A chord diagramD MajorD|---------------------------------------------------------------------------|
A chord diagramA augmentedA|------2----------2---------------------------------------------------------|
A chord diagramE MajorE|---------------0--------------5------------4-3-----------------------------|
A chord diagramBB|--3~------1--3-------3~--2b3-----3~--0-1-3-----3-1-0-----------------------|

e|---------------------------------------------------------------------------|
b|---------------------------------------------------------------------------|
A chord diagramG+G|---------------------------------------------------------------------------|
A chord diagramD MajorD|---------------------------------------------------------------------------|
A chord diagramA augmentedA|---------------------------------------------------------------------------|
A chord diagramE MajorE|-(Left Speaker)----(Right Speaker)----------11-----------------------------|
A chord diagramBB|-0-0---0-0-----------0-0---0-0--------12-13--------------------------------|

Verse:
e|-------------------------------------------------------------------------------------|
b|-------------------------------------------------------------------------------------|
A chord diagramG+G|-------------------------------------------------------------------------------------|
A chord diagramD MajorD|----------------------------------------------------------------------------------x2-|
A chord diagramA augmentedA|-------------------------------------------------------------------------------------|
A chord diagramE MajorE|------11------11------10-----10-----11---------11------11------10-----10-----7-------|
A chord diagramBB|-0-12----0-12----0-10----0-9----0-0----12-0-12----0-12----0-10----0-9----0-0---7-----|


Pre-Chorus
    * * *  * * *  *   * * *  * * *  *  *      * * *  * * *  *   * * *  * * * * *
e|---------------------------------------------------------------------------------------------|
b|---------------------------------------------------------------------------------------------|
A chord diagramG+G|---------------------------------------------------------------------------------------------|
A chord diagramD MajorD|-----------------------------------------x3--------------------------------------------------|
A chord diagramA augmentedA|--2-2-2--2-2-2--2---2-2-2---2-2-2--2--2-----2-2-2--2-2-2--2---2-2-2--2-2-2-2-2---3---5-------|
A chord diagramE MajorE|--2-2-2--2-2-2--2---2-2-2---2-2-2--2--2-----2-2-2--2-2-2--2---2-2-2--2-2-2-2-2---3---5-------|
A chord diagramBB|--0-0-0--0-0-0--0---0-0-0---0-0-0--0--0-----0-0-0--0-0-0--0---0-0-0--0-0-0-0-0---1---3---x-x-|


Chorus:
e|---------------------------------------------------------------------------|
b|---------------------------------------------------------------------------|
A chord diagramG+G|---------------------------7-4---------------------------------------------|
A chord diagramD MajorD|-----5------------5------------7-5------5---------7--9-10------------------|
A chord diagramA augmentedA|--3--5--5--7---3--5--5--7------------3--5--5--7---7--9-10------------------|
A chord diagramE MajorE|--3--3--5--7---3--3--5--7------------3--3--5--7---5--7-8-------------------|
A chord diagramBB|--1-----3--5---1-----3--5------------1-----3--5------------3~--1~-X-X-X----|

Slight variation on opening riff:       * * *  *  * * *  *  * * *
e|---------------------------------------------------------------------------|
b|---------------------------------------------------------------------------|
A chord diagramG+G|---------------------------------------------------------------------------|
A chord diagramD MajorD|---------------------------------------------------------------------------|
A chord diagramA augmentedA|------2----------2---------------------------------------------------------|
A chord diagramE MajorE|---------------0--------------5-------3-3-3--3--3-3-3--3--3-3-3------------|
A chord diagramBB|--3~------1--3-------3~--2b3-----3~---2-2-2--2--2-2-2--2--2-2-2------------|

                                                       +
e|---------------------------------------------------------------------------|
b|---------------------------------------------------------------------------|
A chord diagramG+G|---------------------------------------------------------------------------|
A chord diagramD MajorD|---------------------------------------------------------------------------|
A chord diagramA augmentedA|------2----------2-----------------------------------2---------------------|
A chord diagramE MajorE|---------------0--------------5--------------------------------------------|
A chord diagramBB|--3~------1--3-------3~--2b3-----3~---x-x-x-x-x--3-1-----------------------|

                                        * * *  *  * * *  *  * * *
e|---------------------------------------------------------------------------|
b|---------------------------------------------------------------------------|
A chord diagramG+G|---------------------------------------------------------------------------|
A chord diagramD MajorD|---------------------------------------------------------------------------|
A chord diagramA augmentedA|------2----------2---------------------------------------------------------|
A chord diagramE MajorE|---------------0--------------5-------3-3-3--3--3-3-3--3--3-3-3------------|
A chord diagramBB|--3~------1--3-------3~--2b3-----3~---2-2-2--2--2-2-2--2--2-2-2------------|

                                               + + + +
e|---------------------------------------------------------------------------|
b|---------------------------------------------------------------------------| Pretty sure the last
A chord diagramG+G|---------------------------------------------------------------------------| harmonic on the 6th
A chord diagramD MajorD|---------------------------------------------------------------------------| fret is actually just
A chord diagramA augmentedA|------2----------2---------------------------------------------------------| 5th fret again but pitch
A chord diagramE MajorE|---------------0--------------5------------4-5-5-5-6-----------------------| shifted in post
A chord diagramBB|--3~------1--3-------3~--2b3-----3~--0-1-3---------------------------------|


verse 2 (This is where timing goes crazy):
   * * * *   * *   * *   * *   *  *          * *   * *   * * * *         * *  * *
e|--------------------------------------------------------------------------------------|
b|--------------------------------------------------------------------------------------|
A chord diagramG+G|--------------------------------------------------------------------------------------|
A chord diagramD MajorD|--------------------------------------------------------------------------------------|
A chord diagramA augmentedA|--------------------------------------------------------------------------------5--3--|
A chord diagramE MajorE|----------------------------------------------------------------7---------------5--3--|
A chord diagramBB|-0-0-0-0---0-0---0-0---0-0---0--0--3b5r3---0-0---0-0---0-0-0-0----5b6--0-0--0-0-3--1--|

   * * * *   * *   * *   * *   *  *          * *   * *   * * * *                            +
e|--------------------------------------------------------------------------------------------|
b|--------------------------------------------------------------------------------------------|
A chord diagramG+G|--------------------------------------------------------------------------------------------|
A chord diagramD MajorD|----------------------------------------------------------------------7-8-9-----------------|
A chord diagramA augmentedA|----------------------------------------------------------------------------7-8-9-----------|
A chord diagramE MajorE|----------------------------------------------------------------7-----------------7-8-9-----|
A chord diagramBB|-0-0-0-0---0-0---0-0---0-0---0--0--3b5r3---0-0---0-0---0-0-0-0----5b6--------------------10~|


Pre Chorus 2:
e|---------------------------------------------------------------------------|
b|---------------------------------------------------------------------------|
A chord diagramG+G|---------------------------------------------------------------------------|
A chord diagramD MajorD|----------------------------------------x4---------------------------------|
A chord diagramA augmentedA|-----------------------12---------------------3---5------------------------|
A chord diagramE MajorE|---------7-----11-------------------11--------3---5------------------------|
A chord diagramBB|-0---0-----7-0----12-0----13-0-0-12-----------1---3----x-x-----------------|


Chorus:
e|---------------------------------------------------------------------------7-|
b|------------------------------------------------------------8-7-5---7-8-10---|
A chord diagramG+G|---------------------------7-4------------------------------------7----------|
A chord diagramD MajorD|-----5------------5------------7-5------5---------7--9-10--------------------|
A chord diagramA augmentedA|--3--5--5--7---3--5--5--7------------3--5--5--7---7--9-10--------------------|
A chord diagramE MajorE|--3--3--5--7---3--3--5--7------------3--3--5--7---5--7-8---------------------|
A chord diagramBB|--1-----3--5---1-----3--5------------1-----3--5------------------------------|


Pre Chorus:
Clean Picking these same chords as Chorus but octave higher
E.G:
e|-------------------------------------------------------------------------------------|
b|----------------------8-------8------------------------------------------------------|
A chord diagramG+G|-----5-------5------7---7---7---7-----7-------7--------9-------9---------------------|
A chord diagramD MajorD|---5---5---5---5--5-------5---------7---7---7---7----9---9---9---9---x2--------------|
A chord diagramA augmentedA|-3-------3------------------------5-------5--------7-------7-------------------------|
A chord diagramE MajorE|-------------------------------------------------------------------------------------|
A chord diagramBB|-------------------------------------------------------------------------------------|

e|---------------------------------------------------------------------------|
b|---------------8---------------------------------------8-------------------|
A chord diagramG+G|------5------7---7-----7-------9--------------5------7---7-----7-----------|
A chord diagramD MajorD|----5---5--5---------7---7---9---9---x3-----5---5--5---------7---7---------|
A chord diagramA augmentedA|--3----------------5-------7--------------3----------------5---------------|
A chord diagramE MajorE|---------------------------------------------------------------------------|
A chord diagramBB|---------------------------------------------------------------------------|


Chorus:
e|---------------------------------------------------------------------------|
b|---------------------------------------------------------------------------|
A chord diagramG+G|---------------------------7-4---------------------------------------------|
A chord diagramD MajorD|-----5------------5------------7-5--x3--------5------------5---------------|
A chord diagramA augmentedA|--3--5--5--7---3--5--5--7------------------3--5--5--7---3--5--5--7--3~-----|
A chord diagramE MajorE|--3--3--5--7---3--3--5--7------------------3--3--5--7---3--3--5--7--3~-----|
A chord diagramBB|--1-----3--5---1-----3--5------------------1-----3--5---1-----3--5--1~-----|

Other versions of Karate

KarateChords

Almost there ...

Sign in to get your own page with links to favourite songs and more. You are just one click away...

Login with Facebook Login with Google