Log in

One click and you are in

Login with Facebook Login with Google

Why sign up and log in

Guitar Tabs Explorer
Babymetal bass tabs for Karate

Bass tabs

Intro 0:11
G|-----------------------------------------------------------------|
D|-----------------------------------------------------------------|
A|-----------------------------------------------------------------|
E|-------7-----------------7-------------5-----0-------------------|
B|-4b----------1-----3b--4-----4---3b--------------111-1-111-1-111-|
  1 + 2 + 3 + 4 + 1 + 2 + 3 + 4 + 1 + 2 + 3 + 4 + 1 + 2 + 3 + 4 +

G|-----------------------------------------------------------------|
D|-----------------------------------------------------------------|
A|-----------------------------------------------------------------|
E|-------7-----------------7-------------5-----0-----------5-------|
B|-4b----------1-----3b--4-----4---3b-----------------------4------|
  1 + 2 + 3 + 4 + 1 + 2 + 3 + 4 + 1 + 2 + 3 + 4 + 1 + 2 + 3 + 4 +

G|-----------------------------------------------------------------|
D|-----------------------------------------------------------------|
A|-----------------------------------------------------------------|
E|-------7-----------------7-------------5-----0-------------------|
B|-4b----------1-----3b--4-----4---3b--------------111-1-111-1-111-|
  1 + 2 + 3 + 4 + 1 + 2 + 3 + 4 + 1 + 2 + 3 + 4 + 1 + 2 + 3 + 4 +

G|-----------------------------------------------------------------|
D|-----------------------------------------------------------------|
A|-----------------------------------------------------------------|
E|-------7-----------------7-------------5-----0---------3-2-------|
B|-4b----------1-----3b--4-----4---3b--------------0-1-3-----3-1-1-|
  1 + 2 + 3 + 4 + 1 + 2 + 3 + 4 + 1 + 2 + 3 + 4 + 1 + 2 + 3 + 4 +


Break


Verse 0:35
G|-----------------------------------------------------------------------|
D|o---------------------------------------------------------------------o|
A|--------------------------------7--------------------------------------|
E|o-----8h11---8h11---7h8---5h7-----8-----8h11---8h11---7h8---5h7-------o|
B|--0--------0------0-----0-----0-----0--------0------0-----0-----0-8-7--|
  1 + 2 + 3 + 4 + 1 + 2 + 3 + 4 + 1 + 2 + 3 + 4 + 1 + 2 + 3 + 4 +

Pre Chorus 0:46
G|-----------------------------------------------------------------|
D|-----------------------------------------------------------------|
A|-----------------------------------------------------------------|
E|-----------------------------------------------------------------|
B|-0-0-000-----------000---000-0-0-000-000-0---------000---0-0-000-|
  1 + 2 + 3 + 4 + 1 + 2 + 3 + 4 + 1 + 2 + 3 + 4 + 1 + 2 + 3 + 4 +

G|-----------------------------------------------------------------|
D|-----------------------------------------------------------------|
A|-----------------------------------------------------------------|
E|-----------------------------------------------------------------|
B|-0-0-000-----------000---000-0-0-000-000-0---------000-0-0-0-0-0-|
  1 + 2 + 3 + 4 + 1 + 2 + 3 + 4 + 1 + 2 + 3 + 4 + 1 + 2 + 3 + 4 +

G|---------------------------------|
D|---------------------------------|
A|---------------------------------|
E|---------------------------------|
B|-1---------------3-------3-3-----|
  1 + 2 + 3 + 4 + 1 + 2 + 3 + 4 +


Chorus 0:59
G|-----------------------------------------------------------------|
D|-----------------------------------------------------------------|
A|-----------------------------------------------------------------|
E|-----------------3-3---3-3-3---3---------------------------------|
B|-1-1---1-1-1---1-----------------3-3---3-3-3---3-5-5---5-5-5-5-5-|
  1 + 2 + 3 + 4 + 1 + 2 + 3 + 4 + 1 + 2 + 3 + 4 + 1 + 2 + 3 + 4 +

G|-----------------------------------------------------------------|
D|-----------------------------------------------------------------|
A|-----------------------------------------------------------------|
E|-----------------3-3---3-3-3---3---------------------------------|
B|-1-1---1-1-1---1-----------------3-3---3-3-3---3-5-5-5-5---------|
  1 + 2 + 3 + 4 + 1 + 2 + 3 + 4 + 1 + 2 + 3 + 4 + 1 + 2 + 3 + 4 +

G|-----------------------------------------------------------------|
D|-----------------------------------------------------------------|
A|-----------------------------------------------------------------|
E|-----------------3-3---3-3-3---3---------------------------------|
B|-1-1---1-1-1---1-----------------3-3---3-3-3---3-5-5---5-5-5-5-5-|
  1 + 2 + 3 + 4 + 1 + 2 + 3 + 4 + 1 + 2 + 3 + 4 + 1 + 2 + 3 + 4 +

G|-----------------------------------------------------------------|
D|-----------------------------------------------------------------|
A|-----------------------------------------------------------------|
E|-5---5---5---5---5---5-------------------------------------------|
B|-------------------------0---0---1-1-1-1-1-1-----4b------1-------|
  1 + 2 + 3 + 4 + 1 + 2 + 3 + 4 + 1 + 2 + 3 + 4 + 1 + 2 + 3 + 4 +

Interlude 1:20
G|-----------------------------------------------------------------|
D|-----------------------------------------------------------------|
A|-----------------------------------------------------------------|
E|-------7-----------------7-------------5-----0-------------------|
B|-4b----------1-----3b--4-----4---3b--------------111-1-111-1-111-|
  1 + 2 + 3 + 4 + 1 + 2 + 3 + 4 + 1 + 2 + 3 + 4 + 1 + 2 + 3 + 4 +

G|-----------------------------------------------------------------|
D|-----------------------------------------------------------------|
A|-----------------------------------------------------------------|
E|-------7-----------------7-------------5-----0-----------5-------|
B|-4b----------1-----3b--4-----4---3b-----------------------4------|
  1 + 2 + 3 + 4 + 1 + 2 + 3 + 4 + 1 + 2 + 3 + 4 + 1 + 2 + 3 + 4 +

G|-----------------------------------------------------------------|
D|-----------------------------------------------------------------|
A|-----------------------------------------------------------------|
E|-------7-----------------7-------------5-----0-------------------|
B|-4b----------1-----3b--4-----4---3b--------------111-1-111-1-111-|
  1 + 2 + 3 + 4 + 1 + 2 + 3 + 4 + 1 + 2 + 3 + 4 + 1 + 2 + 3 + 4 +

G|-----------------------------------------------------------------|
D|-----------------------------------------------------------------|
A|-----------------------------------------------------------------|
E|-------7-----------------7-------------5-----0---------3---------|
B|-4b----------1-----3b--4-----4---3b--------------0-1-3-----------|
  1 + 2 + 3 + 4 + 1 + 2 + 3 + 4 + 1 + 2 + 3 + 4 + 1 + 2 + 3 + 4 +


Verse 1:41
G|-----------------------------------------------------------------|
D|-----------------------------------------------------------------|
A|-----------------------------------------------------------------|
E|-----------------------------2---------------5-------------------|
B|-00000-----00--00--00--0-000---3-00-00-0-000---5b--0-0-0-6-6-5-5-|
  1 + 2 + 3 + 4 + 1 + 2 + 3 + 4 + 1 + 2 + 3 + 4 + 1 + 2 + 3 + 4 +

G|-----------------------------------------------------------------------|
D|-----------------------------------------------------------------------|
A|-----------------------------------------------------------------------|
E|-----------------------------2---------------5-0-7h8p7-5h7p5-3h5p3-----|
B|-00000-----00--00--00--0-000---3-00-00-0-000-----------------------7-\-|
  1 + 2 + 3 + 4 + 1 + 2 + 3 + 4 + 1 + 2 + 3 + 4 + Tripl Tripl Tripl 4 +


Pre Chorus 1:52
G|--------------------------------------------------------------------|
D|--------------------------------------------------------------------|
A|----------------------------------------------------------------7---|
E|---------8p7---------8h11-------------8p7-----11p8-----11p8-------8-|
B|-0---0-------0---0--------0---0-3-0-------0--------0--------0-------|
  1 + 2 + 3 + 4 + 1 + 2 + 3 + 4 + 1 + 2 + 3 + 4 + 1 + 2 + 3 + 4 +

G|------------------------------------------------------------------|
D|------------------------------------------------------------------|
A|------------------------------------------------------------------|
E|---------------8p7-----------8h11---------------------------------|
B|-0---0---0---0-------0-3-0--------0-0-0-0-0-0-0-0-0---0-0-0---0-0-|
  1 + 2 + 3 + 4 + 1 + 2 + 3 + 4 + 1 + 2 + 3 + 4 + 1 + 2 + 3 + 4 +

G|---------------------------------|
D|---------------------------------|
A|---------------------------------|
E|---------------------------------|
B|-1---------------3-------3-3-----|
  1 + 2 + 3 + 4 + 1 + 2 + 3 + 4 +


Chorus 2:06
G|-----------------------------------------------------------------|
D|-----------------------------------------------------------------|
A|-----------------------------------------------------------------|
E|-----------------3-3---3-3-3---3---------------------------------|
B|-1-1---1-1-1---1-----------------3-3---3-3-3---3-5-5---5-5-5-5-5-|
  1 + 2 + 3 + 4 + 1 + 2 + 3 + 4 + 1 + 2 + 3 + 4 + 1 + 2 + 3 + 4 +

G|-----------------------------------------------------------------|
D|-----------------------------------------------------------------|
A|-----------------------------------------------------------------|
E|-----------------3-3---3-3-3---3---------------------------------|
B|-1-1---1-1-1---1-----------------3-3---3-3-3---3-5-5-5-5---------|
  1 + 2 + 3 + 4 + 1 + 2 + 3 + 4 + 1 + 2 + 3 + 4 + 1 + 2 + 3 + 4 +

G|-----------------------------------------------------------------|
D|-----------------------------------------------------------------|
A|-----------------------------------------------------------------|
E|-----------------3-3---3-3-3---3---------------------------------|
B|-1-1---1-1-1---1-----------------3-3---3-3-3---3-5-5---5-5-5-5-5-|
  1 + 2 + 3 + 4 + 1 + 2 + 3 + 4 + 1 + 2 + 3 + 4 + 1 + 2 + 3 + 4 +

G|-----------------------------------------------------------------|
D|-----------------------------------------------------------------|
A|-----------------------------------------------------------------|
E|-5---5---5---5---5---5-------------------------------------------|
B|-------------------------0---0---1-1-1-1-1-1-1-1-----------------|
  1 + 2 + 3 + 4 + 1 + 2 + 3 + 4 + 1 + 2 + 3 + 4 + 1 + 2 + 3 + 4 +


Bridge
G|-----------------------------------------------------------------|
D|-----------------------------------------------------------------|
A|-----------------------------------------------------------------|
E|-----------------------------------------------------------------|
B|-1---------------------------------------------------------------|
  1 + 2 + 3 + 4 + 1 + 2 + 3 + 4 + 1 + 2 + 3 + 4 + 1 + 2 + 3 + 4 +

Rest

(2:36) based on https://www.youtube.com/watch v=o0K6OqfIotg
G|-----------12----14--14--14--12--12--12h14-/16----16-16h17-14--14-|
D|-/10--10----------------------------------------------------------|
A|------------------------------------------------------------------|
E|------------------------------------------------------------------|
B|------------------------------------------------------------------|

G|-----------------------------------------------------------------|
D|-16----16h17----16h17/19---14------------------------------------|
A|-----------------------------------------------------------------|
E|-----------------------------------------------------------------|
B|-----------------------------------------------------------------|

2:48
G|--19--16---------------------------------16-----16----------------|
D|o--------19--17----17--17-17-h19-17-17------19-----19---16-17-----|
A|------------------------------------------------------------------|
E|o-----------------------------------------------------------------|
B|------------------------------------------------------------------|

G|-19--16---------------------------------16-----16------16/19------|
D|--------19--17----17--17-17-h19-17-17------19-----19-------------o|
A|------------------------------------------------------------------|
E|-----------------------------------------------------------------o|
B|------------------------------------------------------------------|


Chorus 3:10
G|-----------------------------------------------------------------|
D|-----------------------------------------------------------------|
A|-----------------------------------------------------------------|
E|-----------------3-3---3-3-3---3---------------------------------|
B|-1-1---1-1-1---1-----------------3-3---3-3-3---3-5-5---5-5-5-5-5-|
  1 + 2 + 3 + 4 + 1 + 2 + 3 + 4 + 1 + 2 + 3 + 4 + 1 + 2 + 3 + 4 +

G|-----------------------------------------------------------------|
D|-----------------------------------------------------------------|
A|-----------------------------------------------------------------|
E|-----------------3-3---3-3-3---3---------------------------------|
B|-1-1---1-1-1---1-----------------3-3---3-3-3---3-5-5-5-5---------|
  1 + 2 + 3 + 4 + 1 + 2 + 3 + 4 + 1 + 2 + 3 + 4 + 1 + 2 + 3 + 4 +

G|-----------------------------------------------------------------|
D|-----------------------------------------------------------------|
A|-----------------------------------------------------------------|
E|-----------------3-3---3-3-3---3---------------------------------|
B|-1-1---1-1-1---1-----------------3-3---3-3-3---3-5-5---5-5-5-5-5-|
  1 + 2 + 3 + 4 + 1 + 2 + 3 + 4 + 1 + 2 + 3 + 4 + 1 + 2 + 3 + 4 +

G|-----------------------------------------------------------------|
D|-----------------------------------------------------------------|
A|-----------------------------------------------------------------|
E|-----------------3---3-3-3-3-3-3---------------------------------|
B|-1---1---1---1-------------------3-3-3-3-3-3-3-3-5-5-5-5---------|
  1 + 2 + 3 + 4 + 1 + 2 + 3 + 4 + 1 + 2 + 3 + 4 + 1 + 2 + 3 + 4 +


Outro 3:31
G|-----------------------------------------------------------------|
D|-----------------------------------------------------------------|
A|-----------------------------------------------------------------|
E|-----------------3-3-3-3-3-3-3-3---------------------------------|
B|-1-1-1-1-1-1-1-1-----------------3-3-3-3-3-3-3-3-5-5-5-5-5-5-5-5-|
  1 + 2 + 3 + 4 + 1 + 2 + 3 + 4 + 1 + 2 + 3 + 4 + 1 + 2 + 3 + 4 +

G|-----------------------------------------------------------------|
D|-----------------------------------------------------------------|
A|-----------------------------------------------------------------|
E|-----------------3-3-3-3-3-3-3-3---------------------------------|
B|-1-1-1-1-1-1-1-1-----------------3-3-3-3-3-3-3-3-5-5-5-5---------|
  1 + 2 + 3 + 4 + 1 + 2 + 3 + 4 + 1 + 2 + 3 + 4 + 1 + 2 + 3 + 4 +

G|-------------------------------------------------------------------|
D|o-----------------------------------------------------------------o|
A|-------------------------------------------------------------------|
E|o-----------------3-3-3-3-3-3-3-3---------------------------------o|
B|--1-1-1-1-1-1-1-1-----------------3-3-3-3-3-3-3-3-5-5-5-5-5-5-5-5--|
  1 + 2 + 3 + 4 + 1 + 2 + 3 + 4 + 1 + 2 + 3 + 4 + 1 + 2 + 3 + 4 +

G|-----------------------------------------------------------------|
D|-----------------------------------------------------------------|
A|-----------------------------------------------------------------|
E|-----------------------------------------------------------------|
B|-1---------------------------------------------------------------|
  1 + 2 + 3 + 4 + 1 + 2 + 3 + 4 + 1 + 2 + 3 + 4 + 1 + 2 + 3 + 4 +
Tabbed by Dave Vucko

Alternate 2nd Prechorus (1:52)
G|---------------------------------------------------------------------------|
D|---------------------------------------------------------------------------|
A|-----------------------12-----------------------------------12-------------|
E|---------8p7---10h11------11-----8h11---------8p7---10h11------11-----8h11-|?
B|-0---0-------0-------0-------0-0------0---0-------0-------0-------0-0------|
  1 + 2 + 3 + 4 + 1 + 2 + 3 + 4 + 1 + 2 + 3 + 4 + 1 + 2 + 3 + 4 +

Almost there ...

Sign in to get your own page with links to favourite songs and more. You are just one click away...

Login with Facebook Login with Google