Log in

One click and you are in

Login with Facebook Login with Google

Why sign up and log in

Guitar Tabs Explorer
Babymetal bass tabs for Catch me if you can

Bass tabs

G|o|-----------------------------------------------------------------|
D|-|-----------------------------------------------------------------|
A|-|-----------------------------------------------------------------|
E|-|-----------------------------------------------------------------|
B|o|-0-------------------------1-1-1-1-0-----------------------------|
   1 + 2 + 3 + 4 + 1 + 2 + 3 + 4 + 1 + 2 + 3 + 4 + 1 + 2 + 3 + 4 +

G|-----------------------------------------------------------------|
D|-----------------------------------------------------------------|
A|-----------------------------------------------------------------|
E|-----------------------------------------------------------------|
B|-0-------------------------1-1-1-1-0-------------------------/-\-|
  1 + 2 + 3 + 4 + 1 + 2 + 3 + 4 + 1 + 2 + 3 + 4 + 1 + 2 + 3 + 4 +

G|-------------------------------------------------------------------|o|
D|o-----------------------------------------------------------------o|-|
A|-------------------------------------------------------------------|-|x3
E|o-----------------------------------------------------------------o|-|
B|--0-0---000-0---000-0---000-0-1---0-0---000-0---000-0---000-0-0----|o|
  1 + 2 + 3 + 4 + 1 + 2 + 3 + 4 + 1 + 2 + 3 + 4 + 1 + 2 + 3 + 4 +


Pre Chorus 1:19
G|-----------------------------------------------------------------|
D|-----------------------------------------------------------------|
A|-2222--2222--22--2222--2222--22--2222--2222--22--2222--2222--22--|
E|-----------------------------------------------------------------|
B|-----------------------------------------------------------------|
  1 + 2 + 3 + 4 + 1 + 2 + 3 + 4 + 1 + 2 + 3 + 4 + 1 + 2 + 3 + 4 +

G|-----------------------------------------------------------------|
D|-----------------------------------------------------------------|
A|-2222--2222--22--2222--2222--22----------------------------------|
E|-----------------------------------------------------------------|
B|---------------------------------0-r-0-r-0-0-r-0-----------------|
  1 + 2 + 3 + 4 + 1 + 2 + 3 + 4 + 1 + 2 + 3 + 4 + 1 + 2 + 3 + 4 +

Chorus 1:28
G|-----------------------------------------------------------------|
D|-----------------------------------------------------------------|
A|-----------------------------------------------------------------|
E|---------5-5-5-5-7-7-7-7-2-2-2-2-3-3-3-3-3-3-3-3-3-3-3-3-6-5-5-5-|
B|-3-3-3-3---------------------------------------------------------|
  1 + 2 + 3 + 4 + 1 + 2 + 3 + 4 + 1 + 2 + 3 + 4 + 1 + 2 + 3 + 4 +

G|-----------------------------------------------------------------|
D|-----------------------------------------------------------------|
A|-------------------------------------------------5-5-5-5-5-5-5-5-|
E|---------5-5-5-5-7-7-7-7-2-2-2-2-3-3-3-3-3-3-3-3-----------------|
B|-3-3-3-3---------------------------------------------------------|
  1 + 2 + 3 + 4 + 1 + 2 + 3 + 4 + 1 + 2 + 3 + 4 + 1 + 2 + 3 + 4 +

G|-----------------------------------------------------------------|
D|-----------------------------------------------------------------|
A|-----------------------------------------------------------------|
E|---------5-5-5-5-7-7-7-7-2-2-2-2-3-3-3-3-3-3-3-3-3-3-3-3-6-5-5-5-|
B|-3-3-3-3---------------------------------------------------------|
  1 + 2 + 3 + 4 + 1 + 2 + 3 + 4 + 1 + 2 + 3 + 4 + 1 + 2 + 3 + 4 +

G|-----------------------------------------------------------------|
D|-----------------------------------------------------------------|
A|-----------------------------------------------------------------|
E|---------5-5-5-5-7-7-7-7-2-2-2-2-3-3-3-3-3-3-3-3-----------------|
B|-3-3-3-3-----------------------------------------3-3-3-3-3-3-3-3-|
  1 + 2 + 3 + 4 + 1 + 2 + 3 + 4 + 1 + 2 + 3 + 4 + 1 + 2 + 3 + 4 +

Interlude 1:51
G|-------------------------------------------------------------------|
D|o-----------------------------------------------------------------o|
A|-------------------------------------------------------------------|
E|o-----------------------------------------------------------------o|
B|--000000000-r-----000000000-r-----000000000-r-----000000000-r------|
  1 + 2 + 3 + 4 + 1 + 2 + 3 + 4 + 1 + 2 + 3 + 4 + 1 + 2 + 3 + 4 +

G|-----------------------------------------------------------------|
D|-----------------------------------------------------------------|
A|-----------------------------------------------------------------|
E|-----------------------------------------------------------------|
B|-0000000000000000000000000000000000000000000000000000000000000000|
  1 + 2 + 3 + 4 + 1 + 2 + 3 + 4 + 1 + 2 + 3 + 4 + 1 + 2 + 3 + 4 +

G|-----------------------------------------------------------------|
D|-----------------------------------------------------------------|
A|-----------------------------------------------------------------|
E|-----------------------------------------------------------------|
B|-000000000000000000000000000000001---------------4-4-r-1-r-4-4-1-|
  1 + 2 + 3 + 4 + 1 + 2 + 3 + 4 + 1 + 2 + 3 + 4 + 1 + 2 + 3 + 4 +

G|-----------------------------------------------------------------|
D|-----------------------------------------------------------------|
A|-----------------------------------------------------------------|
E|-----------------------------------------------------------------|
B|-0--------------(0)-------------(0)-------------(0)--------------|
  1 + 2 + 3 + 4 + 1 + 2 + 3 + 4 + 1 + 2 + 3 + 4 + 1 + 2 + 3 + 4 +

G|-----------------------------------------------------------------|
D|-----------------------------------------------------------------|
A|-----------------------------------------------------------------|
E|-----------------------------------------------------------------|
B|(0)-------------(0)-------------(0)-------------(0)--------------|
  1 + 2 + 3 + 4 + 1 + 2 + 3 + 4 + 1 + 2 + 3 + 4 + 1 + 2 + 3 + 4 +


Pre Chorus
G|-----------------------------------------------------------------|
D|-----------------------------------------------------------------|
A|-----------------------------------------------------------------|
E|-----------------------------------------------------------------|
B|-----------------------------------------------------------------|
  1 + 2 + 3 + 4 + 1 + 2 + 3 + 4 + 1 + 2 + 3 + 4 + 1 + 2 + 3 + 4 +

G|-------------------------------------------------------------------------------------------------|
D|-------------------------------------------------------------------------------------------------|
A|-------------------------------------------------------------------------------------------------|
E|-------------------------------------------------------------------------------------------------|
B|---------------------------------0-r-0-r-0-0-r-0-r---------------0-r-0-r-0-0-r-0-r---------------|
  1 + 2 + 3 + 4 + 1 + 2 + 3 + 4 + 1 + 2 + 3 + 4 + 1 + 2 + 3 + 4 + 1 + 2 + 3 + 4 + 1 + 2 + 3 + 4 +


Chorus 2:35
G|-----------------------------------------------------------------|
D|-----------------------------------------------------------------|
A|-----------------------------------------------------------------|
E|---------5-5-5-5-7-7-7-7-2-2-2-2-3-3-3-3-3-3-3-3-3-3-3-3-6-5-5-5-|
B|-3-3-3-3---------------------------------------------------------|
  1 + 2 + 3 + 4 + 1 + 2 + 3 + 4 + 1 + 2 + 3 + 4 + 1 + 2 + 3 + 4 +

G|-----------------------------------------------------------------|
D|-----------------------------------------------------------------|
A|-------------------------------------------------5-5-5-5-5-5-5-5-|
E|---------5-5-5-5-7-7-7-7-2-2-2-2-3-3-3-3-3-3-3-3-----------------|
B|-3-3-3-3---------------------------------------------------------|
  1 + 2 + 3 + 4 + 1 + 2 + 3 + 4 + 1 + 2 + 3 + 4 + 1 + 2 + 3 + 4 +

G|-----------------------------------------------------------------|
D|-----------------------------------------------------------------|
A|-----------------------------------------------------------------|
E|---------5-5-5-5-7-7-7-7-2-2-2-2-3-3-3-3-3-3-3-3-3-3-3-3-6-5-5-5-|
B|-3-3-3-3---------------------------------------------------------|
  1 + 2 + 3 + 4 + 1 + 2 + 3 + 4 + 1 + 2 + 3 + 4 + 1 + 2 + 3 + 4 +

G|-----------------------------------------------------------------|
D|-----------------------------------------------------------------|
A|-------------------------------------------------5-r-5-r-5-r-5-r-|
E|---------5-5-5-5-7-7-7-7-2-2-2-2-3-3-3-3-3-3-3-3-----------------|
B|-3-3-3-3---------------------------------------------------------|
  1 + 2 + 3 + 4 + 1 + 2 + 3 + 4 + 1 + 2 + 3 + 4 + 1 + 2 + 3 + 4 +

2:56
G|-----------------------------------------------------------------|
D|-----------------------------------------------------------------|
A|-----------------------------------------------------------------|
E|---------5-5---5-7-7---7-2-2---2-3-3---3-3-3---3-3-3---3-6-5-5-5-|
B|-3-3---3---------------------------------------------------------|
  1 + 2 + 3 + 4 + 1 + 2 + 3 + 4 + 1 + 2 + 3 + 4 + 1 + 2 + 3 + 4 +

G|-----------------------------------------------------------------|
D|-----------------------------------------------------------------|
A|-------------------------------------------------5-5---5-5-5---5-|
E|---------5-5---5-7-7---7-2-2---2-3-3---3-3-3---3-----------------|
B|-3-3---3---------------------------------------------------------|
  1 + 2 + 3 + 4 + 1 + 2 + 3 + 4 + 1 + 2 + 3 + 4 + 1 + 2 + 3 + 4 +

G|-----------------------------------------------------------------|
D|-----------------------------------------------------------------|
A|-----------------------------------------------------------------|
E|---------5-5555557-7777772-2222223-3333333-3333333-3333336-5-5-5-|
B|-3-333333--------------------------------------------------------|
  1 + 2 + 3 + 4 + 1 + 2 + 3 + 4 + 1 + 2 + 3 + 4 + 1 + 2 + 3 + 4 +

G|---------------------------------------------------------------------------------|
D|---------------------------------------------------------------------------------|
A|---------------------------------------------------------------------------------|
E|-----------------7-r-------------3-r---------------------------------------------|
B|-3-r---------------------------------------------3--------------(3)--------------|
  1 + 2 + 3 + 4 + 1 + 2 + 3 + 4 + 1 + 2 + 3 + 4 + 1 + 2 + 3 + 4 + 1 + 2 + 3 + 4 +

Outro3:19
G|-------------------------------------------------------------------|
D|o-----------------------------------------------------------------o|
A|-------------------------------------------------------------------|x3
E|o-----------------------------------------------------------------o|
B|--0-0---000-0---000-0---000-0-1---0-0---000-0---000-0---000-0-0----|
  1 + 2 + 3 + 4 + 1 + 2 + 3 + 4 + 1 + 2 + 3 + 4 + 1 + 2 + 3 + 4 +

G|-----------------------------------------------------------------|
D|-----------------------------------------------------------------|
A|-----------------------------------------------------------------|
E|-----------------------------------------------------------------|
B|-0-0---000-0---000-0---000-0-1---0-r-0-r-0-0-r-0-r-0-r-0-0-0-0-0-|
  1 + 2 + 3 + 4 + 1 + 2 + 3 + 4 + 1 + 2 + 3 + 4 + 1 + 2 + 3 + 4 +

G|-----------------------------------------------------------------|
D|-----------------------------------------------------------------|
A|-----------------------------------------------------------------|
E|-------------777777----------------------------------------------|
B|-111111555555------6666666---0-0---------------------------------|
  1 + 2 + 3 + 4 + 1 + 2 + 3 + 4 + 1 + 2 + 3 + 4 + 1 + 2 + 3 + 4 +

Almost there ...

Sign in to get your own page with links to favourite songs and more. You are just one click away...

Login with Facebook Login with Google