Log in

One click and you are in

Login with Facebook Login with Google

Why sign up and log in

Guitar Tabs Explorer
Babylon Zoo tabs for Spaceman

Guitar tabs with lyrics

artist-babylon zoo
song-spaceman
tabbed by-nick billington
for corrections contact-
                      seraphim@uk.dreamcast.com

i tabbed this on a 5 string and couldn't be
bothered transposing it. i think this is pretty
much perfect. i may have missed some leadin'
tones so listen to the record.

Synth bass on intro and verses.
A chord diagramA augmentedA simple A chord diagramC majorC / A chord diagramD MajorD proqression sits well and gives
moredynamics, but it isn't actually on the
record.

(THERES A chord diagramA augmentedA FIRE BETWEEN US.."
(The rhythm is quite complex so listen to the
record for this)

 A----------------------------
 E----------------------------
 B----------------------------
F#--6-6-6---------------------
 B---------5-m-5m-5m5m5m5m5-

 A--------------------------------
 E--------------------------------
 B---------5-m-5-m-5m5m5m5m5m---
F#--6-6-6-------------------------
 B--------------------------------

The above repeats until (THE SICKENING TASTE."

PRE-CHORUS

 A-------------------------------------
 E-------------------------------------
 B-------------------------------------
F#--3---3-3-3-3m3m--1m1m1m-1-1--------
 B------------------------------6---6-6-6

 A--------------------
 E--------------------
 B--------------------  x1
F#-------1m1m1m--1-1-
 B--6m6m-------------

 A----------------------
 E----------------------
 B------5-3-----5-3-----   x1
F#--3-3-----1-1--------
 B------------------8-6-

CHORUS

 A------------------------------------
 E------------------------------------
 B------------------------------------
F#-3--3--3-3-6-6-6-6----------8-8-8-8-
 B-------------------6-6--6-6---------
play the A chord diagramFF up an octave on 3 bar of 2nd chorus

 A---------------------------------
 E---------------------------------
 B-----------------------6---------
F#-3--3--3-3-6-6-6-6--------8-8--8-
 B-------------------6-6-----------8


BRIDGE

 A---------------------------
 E---------------------------
 B-5-5-5-5-------------------
F#------------------8m8-----
 B----------6h8m-8------------


OUTRO- much easier than it sounds

 A----------------------------------------
 E----------3-1-3m-3--1---- ------5-3-5m-5-3
 B-5-5-5--3-------------1-1-1--1------------
F#-----------------------------------------
 B-----------------------------------------

OK THATS ABOUT IT!
ⓘ Guitar tab for 'Spaceman' by Babylon Zoo, an alternative rock band formed in 1992 from Wolverhampton, GB

Almost there ...

Sign in to get your own page with links to favourite songs and more. You are just one click away...

Login with Facebook Login with Google