Log in

One click and you are in

Login with Facebook Login with Google

Why sign up and log in

Guitar Tabs Explorer
Babes In Toyland tabs for Sweet 69

Guitar tabs with lyrics

Sweet ’69  Babes in Toyland
		Kat Bjelland - guitar vocals
		Lori Burbero - drums vocals
		Maureen Herman - bass vocals

	Here’s Sweet ’69 off of Babes in Toyland’s CD
"NEMESISTERES"  Play it heavily distorted and it’ll sound
good.  Send comments/corrections/hate mail to ally smith at
a_l_l_y@juno.com
play it in standard (A chord diagramE MajorE) tuning


Intro/ Main Riff/Verse


------------------------
------------------------
-9--------9-9-----------
-9-8-9-9--9-9-8-9-9-9---
-7-8-9-9--7-7-8-9-9-9---
---6-7-7------6-7-7-7---


Chorus

Riff 2

----------------------------------
----------------------------------
----------------------------------
-2-5-7-7--2-2-5-7-7-7-------------
-2-5-7-7--2-2-5-7-7-7-------------
-0-3-5-5--0-0-3-5-5-5-------------


Bridge

Riff 3

------------------------------
------------------------------
------------------------------
------------------------------
-7--------7-7-----------------
---6-7-7------6-7-7-7---------


Order of song


Riff 1

Riff 2

Riff 1

Riff 2

Riff 1

Riff 2

Riff 3

Riff 2

Riff 1

Riff 2

Riff 1

Riff 2

Riff 3

Riff 2

Riff 1

Riff 2

Riff 1

Just mess around with the rhythm and struming of the
song  its pretty easy.  The bass line is the same as the
chords play the bottom note of each chord like in Riff 3.
ⓘ Guitar tab for 'Sweet 69' by Babes In Toyland, an alternative rock band formed in 1987 from Minnesota, USA. They retired in 2001

Almost there ...

Sign in to get your own page with links to favourite songs and more. You are just one click away...

Login with Facebook Login with Google