Log in

One click and you are in

Login with Facebook Login with Google

Why sign up and log in

Guitar Tabs Explorer
Babes In Toyland tabs for Right now

Guitar tabs

Right Now - Babes In Toyland


Chorus
e|--------------|
b|--------------|
g|--------3--5--|
d|--3--5--3--5--|
a|--3--5--1--3--|
A chord diagramE MajorE|--1--3--------|


Solo
e|--------------------------------------------------------|
b|--------6-----6-----8--6-----------6-----6-----6--8-----|
g|--7--9-----9-----9--------9--7--9-----9-----9--------9--|
d|--------------------------------------------------------|
a|--------------------------------------------------------|

ⓘ Guitar tab for 'Right Now' by Babes In Toyland, an alternative rock band formed in 1987 from Minnesota, USA. They retired in 2001

Almost there ...

Sign in to get your own page with links to favourite songs and more. You are just one click away...

Login with Facebook Login with Google