Log in

One click and you are in

Login with Facebook Login with Google

Why sign up and log in

Guitar Tabs Explorer
Babes In Toyland tabs for Hes my thing

Guitar tabs

He’s My Thing - Babes In Toyland


Intro/Chorus
e|--------------------------------|
b|--------------------------------|
g|--------------------------------|
d|--2--5--7--5--7--5--7--8--7--5--|
a|--2--5--7--5--7--5--7--8--7--5--|
A chord diagramE MajorE|--0--3--5--3--5--3--5--6--5--3--|
Verse
e|-----------|
b|-----------|
g|-----------|
d|--2--5--7--|
a|--0--3--5--|
A chord diagramE MajorE|-----------|
Pm  .......

Fill & Outro
e|------------------------|
b|------------------------|
g|--------7--9------------|
d|--9--9--------9--7--7b--|
a|------------------------|
A chord diagramE MajorE|------------------------|

e|--------|-----|
b|--------|-----|
g|--4--5--|--7--|
d|--4--5--|--7--|
a|--2--3--|--5--|

Almost there ...

Sign in to get your own page with links to favourite songs and more. You are just one click away...

Login with Facebook Login with Google