Log in

One click and you are in

Login with Facebook Login with Google

Why sign up and log in

Guitar Tabs Explorer
Babes In Toyland bass tabs for Hes my thing

Bass tabs

Album: Machin
Tabbed by: Mic Davi

This song is verrry easy and there are other ways to play this song this
one is just the easies

Choru
G|-----------------------------
D|-----------------------------
A|-----------------------------
E|--0--3--5--3--5--3--5--6--6--

G|-------------------------------------------------------------
D|-------------------------------------------------------------
A|-------------------------------------------------------------
E|--0-0-0-0-0-0-0-0-3-3-3-3-3-3-3-3-5-5-5-5-5-5-5-5-5-5-5-5-5-3

E|--0-0-0-0-0-0-0-0-3-3-3-3-3-3-3-3-5-5-5-5-5-5-5-5-5-6---|(on 6th fret pull string down

Bridg
G|----------------------------------|----------------------------------
D|----------------------------------|----------------------------------
A|-------5-------5--------5-------5-|---5---5---5---5---5---5--5---5---
E|-7-7-7---7-7-7----7-7-7---7-7-7---|-7---7---7---7---7---7---7--7-----

thats pretty much it

Almost there ...

Sign in to get your own page with links to favourite songs and more. You are just one click away...

Login with Facebook Login with Google