Log in

One click and you are in

Login with Facebook Login with Google

Why sign up and log in

Guitar Tabs Explorer
Babes In Toyland bass tabs for Hello

Bass tabs

Babes in Toylan
"Hello
>From "Nemesisters
Send all corrections to Vow32@yahoo.co


Intro/outro
G: ---------2------------
D: --0-0----------------
A: -----------1-1-2-1-2-
E: -----------------------


Verse/chorus
G: ---------2--1--0------------
D: --0-0------------------------
A: ------------------1-1-2-1-2-
E: -------------------------------


Bridge
A: 1--3--5-

ⓘ Bass guitar tab for 'Hello' by Babes In Toyland, an alternative rock band formed in 1987 from Minnesota, USA. They retired in 2001

Almost there ...

Sign in to get your own page with links to favourite songs and more. You are just one click away...

Login with Facebook Login with Google