Log in

One click and you are in

Login with Facebook Login with Google

Why sign up and log in

Guitar Tabs Explorer
Babes In Toyland tabs for Dust cake boy

Guitar tabs

Dust Cake Boy - Babes In Toyland


Intro/Verse
e|-----|--------|
b|-----|--------|
g|-----|--------|
d|-----|--------|
a|--2--|--2--2--|
A chord diagramE MajorE|--0--|--0--3--|
Pm  .
Chorus
e|--------------|
b|--------------|
g|--5--4--2--4--|
d|--5--4--2--4--|
a|--3--2--0--2--|
A chord diagramE MajorE|--------------|

e|--------------------|---------------|
b|--------------------|---------------|
g|--5--4--2--4--5--7--|--9--10--9--8--|
d|--5--4--2--4--5--7--|--9--10--9--8--|
a|--3--2--0--2--3--5--|--7---8--7--6--|
A chord diagramE MajorE|--------------------|---------------|

e|-----------------|------------------|
b|-----------------|------------------|
g|--9--12--14--15--|------------------|
d|--9--12--14--15--|--13--14--13--12--|
a|--7--10--12--13--|--13--14--13--12--|

Almost there ...

Sign in to get your own page with links to favourite songs and more. You are just one click away...

Login with Facebook Login with Google