Log in

One click and you are in

Login with Facebook Login with Google

Why sign up and log in

Guitar Tabs Explorer
The Babe Rainbow bass tabs for The wind

Bass tabs

Tuning: Standard (E A D G)


Riff 1: (0:05-1:01)
G|-----------------------------|
D|-----------------------------|
A|---7-----7-----5-7-5------5--|
E|-7-----7-----7----------7----|


Riff 2: (1:01)
G|--------------------------------------------------------------------|
D|--------------------------------------------------------------------|
A|-3---6/7---3--0----3------5---5----------------------------------3--|
E|----------------------7-----7------7---5--5--3--5-------5--3--1-----|

These two riffs alternate throughout.
Earth is an egg, dont frack it.



************************************

| / Slide up

************************************

Almost there ...

Sign in to get your own page with links to favourite songs and more. You are just one click away...

Login with Facebook Login with Google