Log in

One click and you are in

Login with Facebook Login with Google

Why sign up and log in

Guitar Tabs Explorer
The Babe Rainbow bass tabs for Something new

Bass tabs

Tuning: Standard (E A D G)


Intro:

G|------------------4----4h6-6-------------------------------2--4--4--2-4-2--|
D|--------------4h6----6--------------------2----4-4-------4----------------4|
A|--4--4--7-4-7-----------------------11--4----4------2--2-------------------|
E|------------------------------2--2-----------------------------------------|

G|------------------------------------------4----4h6-6-----------------------|
D|--------------------------------------4h6----6--------------------2----4-4-|
A|--2--2----2--3--3----3----4--4--7-4-7-----------------------11--4----4-----|
E|------------------------------------------------------2--2-----------------|

G|--------2--4--4--2-4-2----|
D|------4----------------4--|
A|-2--2--------------------2|
E|--------------------------|



Verse 1:

G|------------------4----4h6-6-------------------------------2--4--4--2-4-2----|
D|--------------4h6----6--------------------2----4-4-------4----------------4--|
A|--4--4--7-4-7-----------------------11--4----4------2--2--------------------2|
E|------------------------------2--2-------------------------------------------|

G|------------------4----4h6-6-------------------------------2--4--4--2-4-2--|
D|--------------4h6----6--------------------2----4-4-------4----------------4|
A|--4--4--7-4-7-----------------------11--4----4------2--2-------------------|
E|------------------------------2--2-----------------------------------------|

G|------------------------|
D|------------------------|
A|--2--2----2--3--3----3--|
E|------------------------|


Chorus:

G|------------------4----4h6-6-------------------------------2--4--4--2-4-2--|
D|--------------4h6----6--------------------2----4-4-------4----------------4|
A|--4--4--7-4-7-----------------------11--4----4------2--2-------------------|
E|------------------------------2--2-----------------------------------------|

G|------------------------------------------4----4h6-6-----------------------|
D|--------------------------------------4h6----6--------------------2----4-4-|
A|--2--2----2--3--3----3----4--4--7-4-7-----------------------11--4----4-----|
E|------------------------------------------------------2--2-----------------|

G|--------2--4--4--2-4-2----|
D|------4----------------4--|
A|-2--2--------------------2|
E|--------------------------|

Interlude:

G|------------------4----4h6-6-------------------------------2--4--4--2-4-2----|
D|--------------4h6----6--------------------2----4-4-------4----------------4--|
A|--4--4--7-4-7-----------------------11--4----4------2--2--------------------2|
E|------------------------------2--2-------------------------------------------|

G|------------------4----4h6-6-------------------------------2--4--4--2-4-2----|
D|--------------4h6----6--------------------2----4-4-------4----------------4--|
A|--4--4--7-4-7-----------------------11--4----4------2--2--------------------2|
E|------------------------------2--2-------------------------------------------|


Verse 2:

G|------------------4----4h6-6-------------------------------2--4--4--2-4-2----|
D|--------------4h6----6--------------------2----4-4-------4----------------4--|
A|--4--4--7-4-7-----------------------11--4----4------2--2--------------------2|
E|------------------------------2--2-------------------------------------------|

G|------------------4----4h6-6-------------------------------2--4--4--2-4-2--|
D|--------------4h6----6--------------------2----4-4-------4----------------4|
A|--4--4--7-4-7-----------------------11--4----4------2--2-------------------|
E|------------------------------2--2-----------------------------------------|

G|------------------------|
D|------------------------|
A|--2--2----2--3--3----3--|
E|------------------------|



Chorus:

G|------------------4----4h6-6-------------------------------2--4--4--2-4-2--|
D|--------------4h6----6--------------------2----4-4-------4----------------4|
A|--4--4--7-4-7-----------------------11--4----4------2--2-------------------|
E|------------------------------2--2-----------------------------------------|

G|------------------------------------------4----4h6-6-----------------------|
D|--------------------------------------4h6----6--------------------2----4-4-|
A|--2--2----2--3--3----3----4--4--7-4-7-----------------------11--4----4-----|
E|------------------------------------------------------2--2-----------------|

G|--------2--4--4--2-4-2-----------------------------------------4----4h6-6--|
D|------4----------------4-----------------------------------4h6----6--------|
A|-2--2--------------------2--2----2--3--3----3--4--4--7-4-7-----------------|
E|---------------------------------------------------------------------------|

G|-----------------------------2--4--4--2-4-2--------------------------------|
D|------------2----4-4-------4----------------4------------------------------|
A|------11--4----4------2--2--------------------2--2----2--3--3----3--4--4---|
E|2--2-----------------------------------------------------------------------|

G|----------4----4h6-6-------------------------------2--4--4--2-4-2----|
D|------4h6----6--------------------2----4-4-------4----------------4--|
A|7-4-7-----------------------11--4----4------2--2--------------------2|
E|----------------------2--2-------------------------------------------|


Verse 3:

G|------------------4----4h6-6-------------------------------2--4--4--2-4-2----|
D|--------------4h6----6--------------------2----4-4-------4----------------4--|
A|--4--4--7-4-7-----------------------11--4----4------2--2--------------------2|
E|------------------------------2--2-------------------------------------------|

G|------------------4----4h6-6-------------------------------2--4--4--2-4-2----|
D|--------------4h6----6--------------------2----4-4-------4----------------4--|
A|--4--4--7-4-7-----------------------11--4----4------2--2--------------------2|
E|------------------------------2--2-------------------------------------------|


Outro:

G|------------------4----4h6-6-------------------------------2--4--4--2-4-2----|
D|--------------4h6----6--------------------2----4-4-------4----------------4--|
A|--4--4--7-4-7-----------------------11--4----4------2--2--------------------2|
E|------------------------------2--2-------------------------------------------|


************************************

| h  Hammer-on

************************************

Almost there ...

Sign in to get your own page with links to favourite songs and more. You are just one click away...

Login with Facebook Login with Google