Log in

One click and you are in

Login with Facebook Login with Google

Why sign up and log in

Guitar Tabs Explorer
The Babe Rainbow bass tabs for Johny says stay cool

Johny Says Stay Cool bass tab by The Babe Rainbow

The Babe Rainbow bass tabs for Johny says stay cool

Bass tabs

Intro:

G|---------------------------------------------------------------------------|
D|---------------------------------------------------------------------------|
A|----5--5-6-7-7-----5--5-6-7-7-----5--5-6-7-7-----5--5-6-7-7----------------|x4
E|---7-7------------7-7------------7-7------------7-7------------------------|

Chorus: (Breathe in Breathe out)

G|---------------------------------------------------------------------------|
D|---------------------------------------------------------------------------|
A|----5--5-6-7-7-----5--5-6-7-7-----5--5-6-7-7-----5--5-6-7-7----------------|x2
E|---7-7------------7-7------------7-7------------7-7------------------------|

G|-----9--9p7---------|
D|-----------9--9p7-5-|
A|---7----------------|x7
E|--------------------|


Verse 1:

G|---------------------------------------------------------------------------|
D|---------------------------------------------------------------------------|
A|----5--5-6-7-7-----5--5-6-7-7-----5--5-6-7-7-----5--5-6-7-7----------------|x8
E|---7-7------------7-7------------7-7------------7-7------------------------|


Chorus: (Breathe in Breath out )

G|---------------------------------------------------------------------------|
D|---------------------------------------------------------------------------|
A|----5--5-6-7-7-----5--5-6-7-7-----5--5-6-7-7-----5--5-6-7-7----------------|x2
E|---7-7------------7-7------------7-7------------7-7------------------------|

G|-----9--9p7---------|
D|-----------9--9p7-5-|
A|---7----------------|x7
E|--------------------|

G|-----9--9p7---------|
D|-----------9--7-----|
A|---7----------------|
E|--------------------|


Bridge:

G|--------------------------------|
D|--------------------------------|
A|--7----5-7----5-7----5-7--7-7-7-|
E|--------------------------------|

G|-------------------------------------------------------12-11-----|
D|--------------------------------------------------------------12-|
A|--10-10---8--8-9-10-10----8--8-9-10-10----8--8-9-10--10----------|
E|--------10-10-----------10-10-----------10-10--------------------|

G|----------------|
D|----------------|
A|----5--5-6-7-7--|x11
E|---7-7----------|


Outro:

G|----------------|
D|----------------|
A|----5--5-6-7-7--|x11
E|---7-7----------|


☠☠☠☠☠☠☠☠☠☠☠☠☠☠☠☠☠☠☠☠☠☠☠☠☠☠☠☠☠☠☠☠☠☠☠☠

| p Pull-off

☠☠☠☠☠☠☠☠☠☠☠☠☠☠☠☠☠☠☠☠☠☠☠☠☠☠☠☠☠☠☠☠☠☠☠☠

Almost there ...

Sign in to get your own page with links to favourite songs and more. You are just one click away...

Login with Facebook Login with Google