Log in

One click and you are in

Login with Facebook Login with Google

Why sign up and log in

Guitar Tabs Explorer
Babe Parade bass tabs for Swims

Bass tabs

Tuning: Standard (E A D G)


Intro:
Keys & Gutiar 1st:
Drums follow in with Bass:

G|---------------------------------------------------------------------------|
D|---------------------------------------------------------------------------|
A|-----------3--3-3--3-3-3-/7-7-7-------------3--3-3--3-3-3-/7-7-7-----------|
E|1--1--1-1------------------------1--1--1-1---------------------------------|

G|---------------------------------------------------------------------------|
D|---------------------------------------------------------------------------|
A|-----------3--3-3--3-3-3-/7-7-7-------------3--3-3--3-3-3-/7-7-7--10\0-----|
E|1--1--1-1------------------------1--1--1-1---------------------------------|
Verse 1:

G|---------------------------------------------------------------------------|
D|---------------------------------------------------------------------------|
A|-----------3--3-3--3-3-3--3-3-3-------------3--3-3--3-3-3--3-3-3-----------|
E|1--1--1-1------------------------1--1--1-1---------------------------------|

G|---------------------------------------------------------------------------|
D|---------------------------------------------------------------------------|
A|-----------3--3-3--3-3-3--3-3-3-------------3--3-3--3-3-3-/7-7-7--10\0-----|
E|1--1--1-1------------------------1--1--1-1---------------------------------|

G|---------------------------------------------------------------------------|
D|---------------------------------------------------------------------------|
A|-----------3--3-3--3-3-3--3-3-3-------------3--3-3--3-3-3-/7-7-7-----------|
E|1--1--1-1------------------------1--1--1-1---------------------------------|

G|---------------------------------------------------------------------------|
D|---------------------------------------------------------------------------|
A|-----------3--3-3--3-3-3--3-3-3-------------3--3-3--3-3-3-/7-7-7--10\0-----|
E|1--1--1-1------------------------1--1--1-1---------------------------------|

Chorus:2x

G|---------------------------------------------------------------------------|
D|---------------------------------------------------------------------------|
A|-----------3--3-3--3-3-3-/7-7-7-------------3--3-3--3-3-3-/7-7-7-----------|
E|1--1--1-1------------------------1--1--1-1---------------------------------|

G|---------------------------------------------------------------------------|
D|---------------------------------------------------------------------------|
A|-----------3--3-3--3-3-3-/7-7-7-------------3--3-3--3-3-3-/7-7-7--10\0-----|
E|1--1--1-1------------------------1--1--1-1---------------------------------|


Verse 2:

G|---------------------------------------------------------------------------|
D|---------------------------------------------------------------------------|
A|-----------3--3-3--3-3-3-/7-7-7-------------3--3-3--3-3-3-/7-7-7-----------|
E|1--1--1-1------------------------1--1--1-1---------------------------------|

G|---------------------------------------------------------------------------|
D|---------------------------------------------------------------------------|
A|-----------3--3-3--3-3-3-/7-7-7-------------3--3-3--3-3-3-/7-7-7--10\0-----|
E|1--1--1-1------------------------1--1--1-1---------------------------------|

G|---------------------------------------------------------------------------|
D|----------------------------------------------------------5-3--------------|
A|-----------3--3-3--3-3-3-/7-7-7-------------3--3-3--3-3-3-----5-3----------|
E|1--1--1-1------------------------1--1--1-1---------------------------------|

G|---------------------------------------------------------------------------|
D|---------------------------------------------------------------------------|
A|-----------3--3-3--3-3-3-/7-7-7-------------3--3-3--3-3-3-/7-7-7--10\0-----|
E|1--1--1-1------------------------1--1--1-1---------------------------------|


Chorus:2x

G|---------------------------------------------------------------------------|
D|---------------------------------------------------------------------------|
A|-----------3--3-3--3-3-3-/7-7-7-------------3--3-3--3-3-3-/7-7-7-----------|
E|1--1--1-1------------------------1--1--1-1---------------------------------|

G|---------------------------------------------------------------------------|
D|---------------------------------------------------------------------------|
A|-----------3--3-3--3-3-3-/7-7-7-------------3--3-3--3-3-3-/7-7-7--10\0-----|
E|1--1--1-1------------------------1--1--1-1---------------------------------|


Bridge:
Keys intermission 1st:

G|---------------------------------------------------------------------------|
D|---------------------------------------------------------------------------|
A|-----------3--3-3--3-3-3-/-5--5--5-5-5-------------------------------------|
E|1--1--1-1------------------------------5--5--5-5-\-3-3-3-------------------|

G|---------------------------------------------------------------------------|
D|---------------------------------------------------------------------------|
A|-----------3--3-3--3-3-3-------------5--5-5-5-\-3-3------------------------|
E|1--1--1-1-----------------5--5--5-5----------------------------------------|


Chorus:

G|---------------------------------------------------------------------------|
D|----------------------------------------------------------5-3--------------|
A|-----------3--3-3--3-3-3-/7-7-7-------------3--3-3--3-3-3-----5-3----------|
E|1--1--1-1------------------------1--1--1-1---------------------------------|

G|---------------------------------------------------------------------------|
D|---------------------------------------------------------------------------|
A|-----------3--3-3--3-3-3-/7-7-7-------------3--3-3--3-3-3-/7-7-7--10\0-----|
E|1--1--1-1------------------------1--1--1-1---------------------------------|

G|---------------------------------------------------------------------------|
D|---------------------------------------------------------------------------|
A|-----------3--3-3--3-3-3-/7-7-7-------------3--3-3--3-3-3-/7-7-7-----------|
E|1--1--1-1------------------------1--1--1-1---------------------------------|

G|---------------------------------------------------------------------------|
D|---------------------------------------------------------------------------|
A|-----------3--3-3--3-3-3-/7-7-7-------------3--3-3--3-3-3-/7-7-7--10\0-----|
E|1--1--1-1------------------------1--1--1-1---------------------------------|


Outro:

G|---------------------------------------------------------------------------|
D|---------------------------------------------------------------------------|
A|-----------3--3-3--3-3-3-/7-7-7-------------3--3-3--3-3-3-/7-7-7-----------|
E|1--1--1-1------------------------1--1--1-1---------------------------------|

G|---------------------------------------------------------------------------|
D|---------------------------------------------------------------------------|
A|-----------3--3-3--3-3-3-/7-7-7-------------3--3-3--3/7-7-7-7-10\0---------|
E|1--1--1-1------------------------1--1--1-1---------------------------------|


************************************

| /  Slide up
| \  Slide down

************************************

Almost there ...

Sign in to get your own page with links to favourite songs and more. You are just one click away...

Login with Facebook Login with Google