Log in

One click and you are in

Login with Facebook Login with Google

Why sign up and log in

Guitar Tabs Explorer
Baauer tabs for The harlem shake

Guitar tabs

Difficulty: Novice


Con los terrorista  ca             ca               ca
||--------------------------------------------------------------------|
||--------------------------------------------------------------------|
||--------------------------------------------------------------------|
||--------------------------------------------------------------------|
||--2---------------2---------------2---------------2-----------------|
||--2-2-2-2-2-2-2-2-2-2-2-2-2-2-2-2-2-2-2-2-2-2-2-2-2-2-2-2-2-2-2-2---|
      P.M----------   P.M----------   P.M----------   P.M-------------|
                             x2
||----------------------------|---------------------------------------|
||----------------------------|---------------------------------------|
||----------------------------|---------------------------------------|
||----------------------------|------------2-3-5----------------------|
||----------------------------|-------2-3-5-----5-3-2-----------2-3-5-|
||-2-2-2--3-3-3--5-5-5--3-3-3-|-2-3-5----------------5-3-2-2-3-5------|

DO THE HARLEM SHAKE!
||---------|
||---------|
||---------|
||--/12----|
||--/12----|
||--/12----|

||---------------------------------|
||---------------------------------|
||---------------------------------|


THE END!

ⓘ Guitar tab for 'The Harlem Shake' by Baauer, a male artist from Brooklyn, NY. Baauer was born in 1989.

Almost there ...

Sign in to get your own page with links to favourite songs and more. You are just one click away...

Login with Facebook Login with Google