Search tabs and chords

Browse bands and artists

A B C D E F G H I J K L M N O P Q R S T U V W X Y Z #

Log in

[ Register here | Forgot password ]

Guitar Tabs Explorer
Print

Bump Bump Bump tab by B2k

Intro

  • Tuning: Standard
Intro
e|-4---6-7-6---------------4---6-7-6-----------------------------------------|
B|-4-----------8-9---------4----------8-9------------------------------------|
G|-4-----------------------4-------------------------------------------------|
D|-6-----------------------6-------------------------------------------------|
A|-6-----------------------6-------------------------------------------------|
E|-4-----------------------4-------------------------------------------------|

e|-4-----------------------4-------------------------------------------------|
B|-5---4-5-4---------------5----4-5-4----------------------------------------|
G|-6----------5-6---6------6----------5-6------------------------------------|
D|-6-----------------------6-------------------------------------------------|
A|-4-----------------------4-------------------------------------------------|
E|---------------------------------------------------------------------------|

Other versions of Bump Bump Bump

Bump bump bumpChords

Comments