Planet Claire by The B-52's

Planet Claire tab by The B-52's

Guitar tabs

"Planet Claire" by The B-52's
 tabbed by Nick Jorgensen
 e-mail: XLittleNickyx@aol.com

  this is another really easy, but great song by the b-52's
  standard tuning, or Eb tuning... either one sounds fine..
|-------------------|
|-------------------|
|-------------------| play this part a million times for the
|-------------------| introduction, then again later with fill-
|-------------------| ins for the 2nd guita
|--0-0-2-0-3-0-5-3--|

then for the verse, its pretty much the same thing but on the a string.
it has a few fill-ins if you even want to call them that, so i'll tab it.

|----------------------------------------------------------------------|
|----------------------------------------------------------------------|
|--------------------------------------------------------full-bend-----|
|--------------------------------3-2---------------------------4^-3-2--|
|--0-0-2-0-3-0-5-3---0-0-2-0-3-0------0-0-2-0-3-0-5-3--0-0-2-0---------|
|----------------------------------------------------------------------|

|----------------------------------------------------------------------|
|----------------------------------------------------------------------|
|------------------------------------------------2-4~------------------|
|--------------------------------3-2-------------2-4~------------------|
|--0-0-2-0-3-0-5-3---0-0-2-0-3-0------0-0-2-0-3--0-2~------------------|
|----------------------------------------------------------------------|

now the rhythm part is the introduction part so listen to the song for
when these fill-ins come in.

|----------|          |---------------|
|----------| first "fill-in">> |---------------|
|--2--4~~--|        >> |---------------|
|--2--4~~--| now the second >> |-------3~------|
|--0--2~~--|        >> |-3-2-0---------|
|----------|        >> |---------------|


you probably could've done this yourself...
but those who couldn't, your welcome.

later.

Other versions of Planet Claire

Alternative guitar chords and tabs for Planet Claire by The B-52's

Find guitar tabs and chords

A B C D E F G H I J K L M N O P Q R S T U V W X Y Z #