GuitarTabsExplorer icon
GuitarTabsExplorer icon

Log in

Songbook

  • Log in to add and see bookmarks

Last visited songs

  • No songs visited yet...
Love Shack by The B-52's

Bass tabs

Love Shack -by- The B-52's
 Bass Tabs

 Submitted by Sven88, enjoy.

G||-------|-------|-------|-------|-------|-------|-------|-------|
D||-------|-------|-------|-------|-------|-------|-------|-------|
A||-------|-------|-------|-------|-------|-------|-------|-------|
E||-------|-------|-------|-------|-------|-------|-------|-------|


 H    E E E E   Q  E E E E E E   E E E E E E E E
-----------------------|-------------------------|--------------------------|
-----------------------|-------------------------|--------------------------|
-----------------1-----|--3----3-----------------|--------------1-----1--3--|
--------------3-----3--|-------------1--1-----3--|-----3-----3-----3--------|
 Q  E E E E E E   E E E E E E E E   Q  E E E E E E
-------------------------|--------------------------|-------------------------|
-------------------------|--------------------------|-------------------------|
--3----3-----------------|--------------1-----1--3--|--3----3-----------------|
-------------1--1-----3--|-----3-----3-----3--------|-------------1--1-----3--|


 E E E E E E E E   Q  E E E E E E   E E E E E E E E
--------------------------|-------------------------|--------------------------|
--------------------------|-------------------------|--------------------------|
--------------1-----1--3--|--3----3-----------------|--------------1-----1--3--|
-----3-----3-----3--------|-------------1--1-----3--|-----3-----3-----3--------|


 Q  E E E E E E   E E E E E E E E   Q  E E E E E E
-------------------------|--------------------------|-------------------------|
-------------------------|--------------------------|-------------------------|
--3----3-----------------|--------------1-----1--3--|--3----3-----------------|
-------------1--1-----3--|-----3-----3-----3--------|-------------1--1-----3--|


 E E E E E E E E   Q  E E E E E E   E E E E E E E E
--------------------------|-------------------------|--------------------------|
--------------------------|-------------------------|--------------------------|
--------------1-----1--3--|--3----3-----------------|--------------1-----1--3--|
-----3-----3-----3--------|-------------1--1-----3--|-----3-----3-----3--------|


 Q  E E E E E E   E E E E E E E E   Q  E E E E E E
-------------------------|--------------------------|-------------------------|
-------------------------|--------------------------|-------------------------|
--3----3-----------------|--------------1-----1--3--|--3----3-----------------|
-------------1--1-----3--|-----3-----3-----3--------|-------------1--1-----3--|
 E E E E E E E E   Q  E E E E E E   E E E E E E E E
--------------------------|-------------------------|--------------------------|
--------------------------|-------------------------|--------------------------|
--------------1-----1--3--|--3----3-----------------|--------------1-----1--3--|
-----3-----3-----3--------|-------------1--1-----3--|-----3-----3-----3--------|


 Q  Q  Q  E E   E E Q  E E E E   Q  E E E E E E
-----------------------|-------------------------|-------------------------|
-----------------------|--1--1--1----1--1--1--2--|--3----3--3--3--3--3--3--|
--3----3----3----3--3--|-------------------------|-------------------------|
-----------------------|-------------------------|-------------------------|


 E E E E E E E E   E E E E E E E E   E Q  E E E E E
--1--1--1--1--1--1--1--1--|--------------------------|-------------------------|
--------------------------|--------------------------|-------------------------|
--------------------------|--3--1--3-----------------|-------------1-----1--2--|
--------------------------|--------------1--1--2--3--|-----3----3-----3--------|


 E E Q  E E E E   E E E E E E E E   E E E E E E E E
-------------------------|--------------------------|--------------------------|
-------------------------|--------------------------|--------------------------|
--3--1--3----------------|--------1-----1-----1--2--|--3--1--3-----------------|
-------------1--1--2--3--|-----3-----3-----3--------|--------------1--1--2--3--|


 E Q  E E E E E   E E Q  E E E E   E E E E E E E E
-------------------------|-------------------------|--------------------------|
-------------------------|-------------------------|--------------------------|
-------------1-----1--2--|--3--1--3----------------|--------1-----1-----1--2--|
-----3----3-----3--------|-------------1--1--2--3--|-----3-----3-----3--------|


 Q  E E E E E E   E Q  E E E E E   E E Q  E E E E
-------------------------|-------------------------|-------------------------|
-------------------------|-------------------------|-------------------------|
--3----3-----------------|-------------1-----1--2--|--3--1--3----------------|
-------------1--1--2--3--|-----3----3-----3--------|-------------1--1--2--3--|


 E E E E E E E E   Q  E E E E E E   E Q  E E E E E
--------------------------|-------------------------|-------------------------|
--------------------------|-------------------------|-------------------------|
--------1-----1-----1--2--|--3----3-----------------|-------------1-----1--2--|
-----3-----3-----3--------|-------------1--1--2--3--|-----3----3-----3--------|


 E E Q  E E E E   E E E E E Q  E   H    E E E E
-------------------------|-------------------------|-----------------------|
-------------------------|-------------------------|-----------------------|
--3--1--3----------------|--------1-----3--1----3--|--------------1-----3--|
-------------1--1--2--3--|-----3-----3-------------|-----------------------|


 H    E E E E   H    E E E E   E E E E E E E E
-----------------------|-----------------------|--------------------------|
-----------------------|-----------------------|--------------------------|
--------------1-----3--|-----------------------|--------1-----1-----1--2--|
-----------------------|--------------1-----3--|-----3-----3-----3--------|


 Q  Q  E E E E   E Q  E E E E E   E E Q  E E E E
------------------------|-------------------------|-------------------------|
------------------------|-------------------------|-------------------------|
--3----3----------------|-------------1-----1--3--|--3--1--3----------------|
------------1--1-----3--|-----3----3-----3--------|-------------1--1-----3--|


 E Q  E E E Q    Q  Q  E E E E   E Q  E E E E E
------------------------|------------------------|-------------------------|
------------------------|------------------------|-------------------------|
-------------1-----1----|--3----3----------------|-------------1-----1--3--|
-----3----3-----3-------|------------1--1-----3--|-----3----3-----3--------|


 E E Q  E E E E   E Q  E E E Q    Q  Q  Q  E E
-------------------------|------------------------|-----------------------|
-------------------------|------------------------|-----------------------|
--3--1--3----------------|-------------1-----1----|--3----3----3----3--3--|
-------------1--1-----3--|-----3----3-----3-------|-----------------------|


 E E Q  E E E E   Q  E E E E E E   E E E E E E E E
-------------------------|-------------------------|--1--1--1--1--1--1--1--1--|
--1--1--1----1--1--1--2--|--3----3--3--3--3--3--3--|--------------------------|
-------------------------|-------------------------|--------------------------|
-------------------------|-------------------------|--------------------------|


 Q  E E E E E E   E Q  E E E E E   E E Q  E E E E
-------------------------|-------------------------|-------------------------|
-------------------------|-------------------------|-------------------------|
--3----3-----------------|-------------1-----1--2--|--3--1--3----------------|
-------------1--1--2--3--|-----3----3-----3--------|-------------1--1--2--3--|


 E E E E E E E E   Q  E E E E E E   E Q  E E E E E
--------------------------|-------------------------|-------------------------|
--------------------------|-------------------------|-------------------------|
--------1-----1-----1--2--|--3----3-----------------|-------------1-----1--2--|
-----3-----3-----3--------|-------------1--1--2--3--|-----3----3-----3--------|


 E E Q  E E E E   E E E E E E E E   Q  E E E E E E
-------------------------|--------------------------|-------------------------|
-------------------------|--------------------------|-------------------------|
--3--1--3----------------|--------1-----1-----1--2--|--3----3-----------------|
-------------1--1--2--3--|-----3-----3-----3--------|-------------1--1--2--3--|


 E Q  E E E E E   E E Q  E E E E   E E E E E Q  E
-------------------------|-------------------------|-------------------------|
-------------------------|-------------------------|-------------------------|
-------------1-----1--2--|--3--1--3----------------|--------1-----3--1----3--|
-----3----3-----3--------|-------------1--1--2--3--|-----3-----3-------------|


 Q  E E E E E E   E Q  E E E E E   E E Q  E E E E
-------------------------|-------------------------|-------------------------|
-------------------------|-------------------------|-------------------------|
--3----3-----------------|-------------1-----1--2--|--3--1--3----------------|
-------------1--1--2--3--|-----3----3-----3--------|-------------1--1--2--3--|


 E E E E E Q  E   Q  E E E E E E   E Q  E E E E E
-------------------------|-------------------------|-------------------------|
-------------------------|-------------------------|-------------------------|
--------1-----3--1----3--|--3----3-----------------|-------------1-----1--3--|
-----3-----3-------------|-------------1--1--2--3--|-----3----3-----3--------|


    H    E E E E   Q  E E E E E E
-----|-----------------------|-------------------------|
-----|-----------------------|-------------------------|
-----|-----------------------|--3----3-----------------|
-----|--------------3--3--3--|-------------1--1--2--3--|


 E Q  E E E E E   E E Q  E E E E   E E E E E Q  E
-------------------------|-------------------------|-------------------------|
-------------------------|-------------------------|-------------------------|
-------------1-----1--2--|--3--1--3----------------|--------1-----3--1----3--|
-----3----3-----3--------|-------------1--1--2--3--|-----3-----3-------------|


 Q  E E E E E E   E Q  E E E E E   E E Q  E E E E
-------------------------|-------------------------|-------------------------|
-------------------------|-------------------------|-------------------------|
--3----3-----------------|-------------1-----1--2--|--3--1--3----------------|
-------------1--1--2--3--|-----3----3-----3--------|-------------1--1--2--3--|


 E E E E E Q  E   Q  E E E E E E   E Q  E E E E E
-------------------------|-------------------------|-------------------------|
-------------------------|-------------------------|-------------------------|
--------1-----3--1----3--|--3----3-----------------|-------------1-----1--2--|
-----3-----3-------------|-------------1--1--2--3--|-----3----3-----3--------|


 E E Q  E E E E   E E E E E Q  E   Q  E E E E E E
-------------------------|-------------------------|-------------------------|
-------------------------|-------------------------|-------------------------|
--3--1--3----------------|--------1-----3--1----3--|--3----3-----------------|
-------------1--1--2--3--|-----3-----3-------------|-------------1--1--2--3--|


 E Q  E E E E E   E E Q  E E E E   E E E E E Q  E
-------------------------|-------------------------|-------------------------|
-------------------------|-------------------------|-------------------------|
-------------1-----1--2--|--3--1--3----------------|--------1-----3--1----3--|
-----3----3-----3--------|-------------1--1--2--3--|-----3-----3-------------|


 Q  E E E E E E   E E E E E E E E   Q  E E E E E E
-------------------------|--------------------------|-------------------------|
-------------------------|--------------------------|-------------------------|
--3----3-----------------|--------------1-----1--3--|--3----3-----------------|
-------------1--1-----3--|-----3-----3-----3--------|-------------1--1-----3--|


 E E E E E E E E   Q  E E E E E E   E E E E E E E E
--------------------------|-------------------------|--------------------------|
--------------------------|-------------------------|--------------------------|
--------------1-----1--3--|--3----3-----------------|--------------1-----1--3--|
-----3-----3-----3--------|-------------1--1-----3--|-----3-----3-----3--------|


 Q  E E E E E E   E E E E E E E E   Q  Q  Q  E E
-------------------------|--------------------------|-----------------------|
-------------------------|--------------------------|-----------------------|
--3----3-----------------|--------------1-----1--3--|--3----3----3----3--3--|
-------------1--1-----3--|-----3-----3-----3--------|-----------------------|


 E E Q  E E E E   Q  E E E E E E   E E E E E E E E
-------------------------|-------------------------|--1--1--1--1--1--1--1--1--|
--1--1--1----1--1--1--2--|--3----3--3--3--3--3--3--|--------------------------|
-------------------------|-------------------------|--------------------------|
-------------------------|-------------------------|--------------------------|


 Q  E E E E E E   E Q  E E E E E   E E Q  E E E E
-------------------------|-------------------------|-------------------------|
-------------------------|-------------------------|-------------------------|
--3----3-----------------|-------------1-----1--2--|--3--1--3----------------|
-------------1--1--2--3--|-----3----3-----3--------|-------------1--1--2--3--|


 E E E E E E E E   Q  E E E E E E   E Q  E E E E E
--------------------------|-------------------------|-------------------------|
--------------------------|-------------------------|-------------------------|
--------1-----1-----1--2--|--3----3-----------------|-------------1-----1--2--|
-----3-----3-----3--------|-------------1--1--2--3--|-----3----3-----3--------|


 E E Q  E E E E   E E E E E E E E   Q  E E E E E E
-------------------------|--------------------------|-------------------------|
-------------------------|--------------------------|-------------------------|
--3--1--3----------------|--------1-----1-----1--2--|--3----3-----------------|
-------------1--1--2--3--|-----3-----3-----3--------|-------------1--1--2--3--|


 E Q  E E E E E   E E Q  E E E E   E E E E E E E E
-------------------------|-------------------------|--------------------------|
-------------------------|-------------------------|--------------------------|
-------------1-----1--2--|--3--1--3----------------|--------1-----1-----1--3--|
-----3----3-----3--------|-------------1--1--2--3--|-----3-----3-----3--------|


 Bass solo
 E     E E E E E E E   E E E E E E E E
---------------------------------|--------------------------|
---------------------------------|--------------------------|
--3---------1--3-----------------|--------1-----1-----1--3--|
---------------------1--1--2--3--|-----3-----3-----3--------|


 E E E E E E E E   E E E E E E E E
--------------------------|--------------------------|
--------------------------|--------------------------|
--3--1--3-----------------|--------------1-----1--3--|
--------------1--1--2--3--|-----3-----3-----3--------|


 E E E E E E E E   E E E E E E E E
--------------------------|--------------------------|
--------------------------|--------------------------|
--3--1--3-----------------|--------0-----1--1--2--2--|
--------------1--1--2--3--|-----3--------------------|


 E E E E E E E E   E E E E E E E E
--------------------------|--------------------------|
--------------------------|--------------------------|
--3--1--3-----------------|--------1-----1-----1--3--|
--------------1--1--2--3--|-----3-----3-----3--------|


 E E E E E E E E   E E E E E E E E
--------------------------|--------------------------|
--------------------------|--------------------------|
--3--1--3-----------------|--------1-----1-----1--3--|
--------------1--1--2--3--|-----3-----3-----3--------|


 E E E E E E E E   E E E E E E E E
--------------------------|--------------------------|
--------------------------|--------------------------|
--3-----3-----------------|--------1-----1-----1--3--|
--------------1--1--2--3--|-----3-----3-----3--------|


 E E E E E E E E   E E E E E E E E
--------------------------|--------------------------|
--------------------------|--------------------------|
--3--1--3-----------------|--------1-----1-----1--3--|
--------------1--1--2--3--|-----3-----3-----3--------|


 E E E E E E E E   E E E E E E E E
--------------------------|--------------------------|
--------------------------|--------------------------|
--3-----3-----------------|--------1-----1-----1--3--|
--------------1--1--2--3--|-----3-----3-----3--------|


 E E E E E E E E   E E E E E E E E
--------------------------|--------------------------|
--------------------------|--------------------------|
--3--1--3-----------------|--------1-----1-----1--3--|
--------------1--1--2--3--|-----3-----3-----3--------|


 E E E E E E E E   E E E E E E E E
--------------------------|--------------------------|
--------------------------|--------------------------|
--3-----3-----------------|--------1-----1-----1--3--|
--------------1--1--2--3--|-----3-----3-----3--------|


 E E E E E E E E   E E E E E E E E
--------------------------|--------------------------|
--------------------------|--------------------------|
--3--1--3-----------------|--------1-----1-----1--3--|
--------------1--1--2--3--|-----3-----3-----3--------|


 E E E E E E E E   E E E E E E E E
--------------------------|--------------------------|
--------------------------|--------------------------|
--3-----3-----------------|--------1-----1-----1--3--|
--------------1--1--2--3--|-----3-----3-----3--------|


 E E E E E E E E   E E E E E E E E
--------------------------|--------------------------|
--------------------------|--------------------------|
--3--1--3-----------------|--------1-----1-----1--3--|
--------------1--1--2--3--|-----3-----3-----3--------|


 E E E E E E E E   E E E E E E E E
--------------------------|--------------------------|
--------------------------|--------------------------|
--3--1--3-----------------|--------1-----1-----1--3--|
--------------1--1--2--3--|-----3-----3-----3--------|


 E E E E E E E E   E E E E E E E E
--------------------------|--------------------------|
--------------------------|--------------------------|
--3--1--3-----------------|--------1-----1-----1--3--|
--------------1--1--2--3--|-----3-----3-----3--------|


 E E E E E E E E   E E E E E E E E
--------------------------|--------------------------|
--------------------------|--------------------------|
--3--1--3-----------------|--------1-----1-----1--3--|
--------------1--1--2--3--|-----3-----3-----3--------|


 E E E E E E E E   E E E E E E E E
--------------------------|--------------------------|
--------------------------|--------------------------|
--3--1--3-----------------|--------1-----1-----1--3--|
--------------1--1--2--3--|-----3-----3-----3--------|


 E E E E E E E E   E E E E E E E E   E E H.
--------------------------|--------------------------|---------------------|
--------------------------|--------------------------|---------------------|
--3--1--3-----------------|--------1-----1-----1--2--|--3------------------|
--------------1--1--2--3--|-----3-----3-----3--------|---------------------|


                 Q  E E E E E E
---------------|---------------|-------------------------|
---------------|---------------|-------------------------|
---------------|---------------|--3----3-----------------|
---------------|---------------|-------------1--1--2--3--|


 E Q  E E E E E   E E Q  E E E E   E E E E E E E E
-------------------------|-------------------------|--------------------------|
-------------------------|-------------------------|--------------------------|
-------------1-----1--2--|--3--1--3----------------|--------1-----1-----1--2--|
-----3----3-----3--------|-------------1--1--2--3--|-----3-----3-----3--------|


 Q  E E E E E E   E Q  E E E E E   E E Q  E E E E
-------------------------|-------------------------|-------------------------|
-------------------------|-------------------------|-------------------------|
--3----3-----------------|-------------1-----1--2--|--3--1--3----------------|
-------------1--1--2--3--|-----3----3-----3--------|-------------1--1--2--3--|


 E E E E E E E E   W          W
--------------------------|-------------------|-------------------|
--------------------------|-------------------|-------------------|
--------1-----1-----1--2--|--3----------------|--L----------------|
-----3-----3-----3--------|-------------------|-------------------|


 E. S H.
---------------------|---------------||
---------------------|---------------||
--3------------------|---------------||
---------------------|---------------||



Duration 🏷Legend
---------------
W - whole
H - half
Q - quarter
E - 8th
S - 16th
T - 32nd
X - 64th
. - note dotted
|-n-| - n-tuplets


Tablature 🏷Legend
----------------
L - tied note
x - dead note
g - grace note
(n) - ghost note
> - accentuded note
NH - natural harmonic
AH - artificial harmonic
TH - tapped harmonic
SH - semi harmonic
PH - pitch harmonic
h - hammer on
p - pull off
b - bend
br - bendRelease
pb - preBend
pbr - preBendRelease
brb - bendReleaseBend

/ - tremolo bar dip

 - tremolo bar dive
-/n - tremolo bar Release up
/n - tremolo bar inverted dip
/n - tremolo bar return
-
 - tremolo bar Release down
S - shift slide
s - legato slide
/ - slide into from below or out of upwards
 - slide into from above or out of downwards
~ - vibrato
W - wide vibrato
tr - trill
TP - tremolo picking
T - tapping
S - slap
P - pop
< - fade in
^ - brush up
v - brush down

[ Privacy | About us ]

Welcome to the guitar community

Why join and log in?
- Get songbook with favourite songs
- Get custom made front page
- Submit chords and tabs
- Submit guitar-cover videos
- Get a lot of thumbs up for your work

Songbook

Last visited songs

Site
Home
Search
Community
Submit chords

Video

No video for this page. Check out how you can submit guitar-cover videos here

Search tabs and chords

Browse by artist

A B C D E F G H I J K L M N O P Q R S T U V W X Y Z #


Menu

Search

Video

Bookmark

Login