GuitarTabsExplorer icon
GuitarTabsExplorer icon

Log in

Songbook

  • Log in to add and see bookmarks

Last visited songs

  • No songs visited yet...
Dirty Back Road by The B-52's

Tabs

Dirty Back Road by The B-52's Guitar Tab - Transcribed by 101Volts

This is a very simple song. I think I have this tab mostly done,
Perhaps there are a few more parts I missed though. Listen closely to
the song to find out.


Intro:


E-------------------------------
B-10--8--6---8-10-------6-------
G-------------------------------
D-------------------------------
A-------------------------------
E-------------------------------
E-------------------------------
B-----------6-------------------
G-------------------------------
D-7-7-0-5-5----8-8-8-8-8-8-8-8--
A-7-7---5-5---------------------
E-5-5---3-3---------------------

E-------------------------------
B-----------6-------------------
G-------------------------------
D-7-7-0-5-5---5-5-5-5-5-5-5-5---
A-7-7---5-5---------------------
E-3-3---3-3---------------------

E-------------------------------
B-----------6-------------------
G-------------------------------
D-7-7-0-5-5---7-5-3-7-5-3-------
A-7-7---5-5---------------------
E-3-3---3-3---------------------

You could use 8 on the Chord diagramA augmentedA string in place of 3 on the Chord diagramD MajorD string if you want for that last part.

Oh and just as a note, I'm not sure if Ricky played power chords in this song.
He may have played something more like this:

E-------------------------------
B------------6------------------
G--------0----------------------
D--7-7-0-5----------------------
A--0-0--------------------------
E-------------------------------

See if you can figure it out, I only figured out this song the same day I wrote
the tab. Sorry if it is a bit off - 101Volts

[ Privacy | About us ]

Welcome to the guitar community

Why join and log in?
- Get songbook with favourite songs
- Get custom made front page
- Submit chords and tabs
- Submit guitar-cover videos
- Get a lot of thumbs up for your work

Songbook

Last visited songs

Site
Home
Search
Community
Submit chords

Video

No video for this page. Check out how you can submit guitar-cover videos here

Search tabs and chords

Browse by artist

A B C D E F G H I J K L M N O P Q R S T U V W X Y Z #


Menu

Search

Video

Bookmark

Login