Search tabs and chords

Search for song, artist or band

Log in

One click and you are in

Login with Facebook Login with Google

Why sign up and log in

Guitar Tabs Explorer
Ray Azure guitar tabs for Look to me

Guitar tabs with lyrics

Azure Ray - "Look to me", from the album "Hold on Love"
Submitted by Yiftach Ofek
ofek_corp@hotmail.com

Intro / Outro / Between verses
        Am chord diagramAmAm                  C chord diagramCC                             Am chord diagramAmAm
(x2)
e|-----------------------------------------------------------------|
B|-----------------------------------------------------------------|
G|-------2---2---2---------0---0----0----------2---2--2-----|
D|-----2--2---2---2----2----2---2----2-----2---2---2---2--|
A|---0-----------------3---------------------0-------------------|
E|-----------------------------------------------------------------|

 Verse
    Am chord diagramAmAm                  Em chord diagramEmEm
--------------------------------------------------------------------------------
--------------------------------------------------------------------------------
-------2---2---2----------------0---0---0-----0---0---0----------------------|
-----2--2---2---2------------2---2--2------2---2---2------------------------|
---0----------------------------------------------------------------------------
------------------------------0--------------0----------------------------------
    Lay your head       in my lap


         F chord diagramFF
G chord diagramGG                        Am chord diagramAmAm
e|------------------------------------------------------------------------------
B|------------------------------------------------------------------------------
G|------------------2--2--2----------------0---0---0----------2--2---2-------|
D|---------------3---3---3--3----------0---0----0---0----2----2--2----------|
A|------------------------------------2---------------------0-------------------
E|----------1-------------------------------------------------------------------
    ...my laugh                         comfort you now here in the cold

Chorus

              F chord diagramFF                              Am chord diagramAmAm
G chord diagramGG                       Am chord diagramAmAm
e|------------------------------------------------------------------------------
B|------------------------------------------------------------------------------
G|------------------2--2-2---------2---2---2-----------0----0---0------2---2-|
D|---------------3---3--3-------2---2---2----------0-----0----0------2---2---|
A|------------------------------0-------------------2--------------------0------
E|-----------1------------------------------------------------------------------
...down at you     .....up to me

Break
 F chord diagramFF                                G chord diagramGG                       (x2)
----------------------------------------------------------------------------|
----------------------------------------------------------------------------|
---------2---2---2----------0----0--------------------------------------|
------3----3--3-----------0---0---0------------------------------------|
--------------------------2------------------------------------------------|
---1-----------------------------------------------------------------------|

Intro: Am chord diagramAmAm C chord diagramCC Am chord diagramAmAm Am chord diagramAmAm

                  Am chord diagramAmAm                Em chord diagramEmEm
Lay your head in my lap

F chord diagramFF                                   G chord diagramGG                            Am chord diagramAmAm
Let the sound of my laugh comfort you now here in the cold

Am chord diagramAmAm                                                    Em chord diagramEmEm
Your face gets wet as the drink slips from my hand
                        F chord diagramFF
G chord diagramGG                                            Am chord diagramAmAm
The faster i drive the harder i cry don't worry i'll get us there

Chorus:
                                     F chord diagramFF
And i look down at you
                              Am chord diagramAmAm
You look up at me
                                     G chord diagramGG        Am chord diagramAmAm
We're a real fucked up family

Am chord diagramAmAm C chord diagramCC Am chord diagramAmAm Am chord diagramAmAm

We make it home this place is a mess
The smell of cologne mixed with all that we own
Not much i must confess
I hold your hand as you slip from me
As i watch your breath i say to myself one day this will all end
And i look at you
You look at me
We're a real fucked up family

(Solo: Same as verse)

F chord diagramFF    G chord diagramGG       F chord diagramFF             G chord diagramGG
All night i feel it inside
But i know you're right as i begin to pack
Without raising your eyes i hear you sigh oh you'll be back
Because i look to you and you look to me
We're a real fucked up family

Submitted by Yiftach Ofek
ofek_corp@hotmail.com

Other versions of Look To Me

Look to meChords

Almost there ...

Sign in to get your own page with links to favourite songs and more. You are just one click away...

Login with Facebook Login with Google