Log in

One click and you are in

Login with Facebook Login with Google

Why sign up and log in

Guitar Tabs Explorer
Ray Azure guitar tabs for Displaced

Guitar tabs

Displaced / Azure Ray (taken from Azure Ray)

Based on the chords published on the net - thanks to whoever put them up!
Intro + Verse
    A chord diagramG MajorG      A chord diagramE minor 7Em7     A chord diagramG MajorG             A chord diagramE minorEm A chord diagramG MajorG A chord diagramD MajorD A chord diagramE minorEm           A chord diagramD MajorD
e|----------------------------------------------------------------
B|----------------------------------------------------------------
G|----------------------------------------------------------------
D|--5~-----------------------------5--0--2-------2---0~-----------
A|--5~---5---7---7---5------5----7/5--0--2----2---2--0~-----------
E|--3~-3---3---3---3------3---3-/3/3-----0--0--0---0--------------

- on last bit return to the G/Em7 alterations



Chorus:
(well there's a lot of keyboards so you can't really tell, but here's the
best I could do)
         A chord diagramC majorC                   A chord diagramG MajorG         A chord diagramE MajorE         A chord diagramC majorC
e|----------------------------------------------------------------
B|----------------------------------------------------------------
G|----------------------------------------------------------------
D|-------10-----10-----------5~--5/7-0-2-----2---/10--------------
A|-------10--10-------10-----5~--5/7-0-2---2--2--/10--------------
E|-3--5--8--8--8----8----8--/3~--3/5---0--0-0--0-/8---------------

and finish the chorus with the G/Em7 alterations, like at the begininng


Yiftach Ofek
ofek_corp@hotmail.com

Almost there ...

Sign in to get your own page with links to favourite songs and more. You are just one click away...

Login with Facebook Login with Google