Search tabs and chords

Search for song, artist or band

Log in

One click and you are in

Login with Facebook Login with Google

Why sign up and log in

Guitar Tabs Explorer
Azie Mortimer bass tabs for The best years of our lives

The Best Years Of Our Lives bass tab by Azie Mortimer

Azie Mortimer bass tabs for The best years of our lives

Bass tabs

Tuning: 1/4 step up.

G|----------------------------------------------------------------|
D|----------------------------------------------------------------|
A|----------------------------------------------------------------|
E|2-----------2---2---------------3-----------3---3---------------|

G|----------------------------------------------------------------|
D|----------------------------------------------------------------|
A|------------------------------------------------------------3---|
E|2-----------2---2---------------3-----------3---3---------------|

0:12

G|----------------------------------------------------------------|
D|----------------------------------------------------------------|
A|2-----------2---2-------2---1---------------1---------------1---|
E|------------------------------------------------4-------4-------|

G|----------------------------------------------------------------|
D|----------------------------------------------------------------|
A|2-----------2---2-------2---1---------------1-------------------|
E|------------------------------------------------4-----------4---|

G|----------------------------------------------------------------|
D|----------------------------3---4-----------4-------4---4-------|
A|1-----------1---1-------------------------------------------4---|
E|----------------------------------------------------------------|

0:28

G|----------------------------------------------------------------|
D|----------------------------------------------------------------| x3
A|2-----------2---2-----------2---1-----------1---1-----------1---|
E|----------------------------------------------------------------|

G|--------------------------------------------------------------------|
D|--------------------------------------------------------------------|
A|2-----------2---2-------2---2---4-----------------4-----4-----4-----|
E|--------------------------------------------------------------------|

0:50

G|----------------------------------------------------------------|
D|----------------------------------------------------4---1-------|
A|--------------------------------2-----------2---2-----------2---|
E|2-----------2---2-----------2-----------------------------------|

G|----------------------------------------------------------------|
D|----------------------------3---1-----------1-------1-----------|
A|------------------------------------------------4-------4---1---|
E|2-----------2---2-----------------------------------------------|

G|----------------------------------------------------------------|
D|----------------------------------------------------------------|
A|2-----------2---2-------2---1---------------1---------------1---|
E|------------------------------------------------4-------4-------|

G|----------------------------------------------------------------|
D|----------------------------------------------------------------|
A|2-----------2---2-------2---1---------------1-------------------|
E|------------------------------------------------4-----------4---|

G|----------------------------------------------------------------|
D|----------------------------3---4-----------4-----------4-------|
A|1-----------1---1-----------------------------------4-------4---|
E|----------------------------------------------------------------|

1:17

G|----------------------------------------------------------------|
D|----------------------------------------------------------------| x3
A|2-----------2---2-----------2---1-----------1---1-----------1---|
E|----------------------------------------------------------------|

G|--------------------------------------------------------------------|
D|--------------------------------------------------------------------|
A|2-----------2---2-------2---2---4-----------------4-----4-----4-----|
E|--------------------------------------------------------------------|

G|----------------------------------------------------------------|
D|----------------------------------------------------------------|
A|------------------------------------------------------------4---|
E|2-----------2---2---------------2-----------2---2---------------|

1:44

G|----------------------------------------------------------------|
D|----------------------------------------------------------------|
A|3-----------3---3-------3---2---------------2---0-------0---2---|
E|----------------------------------------------------------------|

G|----------------------------------------------------------------|
D|----------------------------------------------------------------|
A|3-----------3---3-------3---2---------------2---0-----------0---|
E|----------------------------------------------------------------|

G|----------------------------------------------------------------|
D|----------------------------4---5-----------5-------------------|
A|2-----------2---2-------------------------------------------5---|
E|----------------------------------------------------------------|

2:00 Until fadeout.

G|----------------------------------------------------------------|
D|----------------------------------------------------------------| x3
A|3-----------3---3-----------3---2-----------2---2-----------2---|
E|----------------------------------------------------------------|

G|--------------------------------------------------------------------|
D|--------------------------------------------------------------------|
A|3-----------3---3-------3---3---5-----------------5-----5-----5-----|
E|--------------------------------------------------------------------|

G|----------------------------------------------------------------|
D|----------------------------------------------------------------|
A|----------------------------------------------------------------|

Almost there ...

Sign in to get your own page with links to favourite songs and more. You are just one click away...

Login with Facebook Login with Google