Log in

One click and you are in

Login with Facebook Login with Google

Why sign up and log in

Guitar Tabs Explorer
Axenstar guitar tabs for Abandoned

Guitar tabs

Tuning: Standard (E A D G B E)


Intro Lead:

e|---------------------------------------------------------------------------------------|
B|-----13-----13-----11-----13-----------------------------------------------------------|
G|---12-----12-----12-----12----12-------------------------------------------------------| x8
D|-10-----10-----10-----10--------13-12--10-12-13---------12-13-15---------13-15-12-13---|
A|------------------------------------------------11-13-15--------13-15-17---------------|
E|---------------------------------------------------------------------------------------|
Intro Rhythm:

e|---------------------------------------------------------------------------------------|
B|---------------------------------------------------------------------------------------|
G|-5-5-----------------------------------------------------3-----------------------------| x3
D|-5-5-----------------------------3--5--6--------3--------3------5--------8------7------|
A|-3-3-----------------------------3--5--6--------3--------1------5--------6------5------|
E|---------------------------------1--3--4--------1---------------3----------------------|


Intro Rhythm cont...:

e|----------------------------------------------------------------------------------------|
B|----------------------------------------------------------------------------------------|
G|-5-5-----------5------5-5-5-------------------------------3-----------------------------|
D|-5-5-----------5------3-3-3-------3--5--6--------3--------3------5--------8------7------|
A|-3-3-----------3------3-3-3-------3--5--6--------3--------1------5--------6------5------|
E|----------------------------1--1--1--3--4--------1---------------3----------------------|
                              PM PM

e|----------------------------------------------------------------------------------------|
B|----------------------------------------------------------------------------------------|
G|-5-5----------------------------------------------------------3---------------8------7--| x4
D|-5-5-----------------------------------3--5--6-------3--------3------5--------8------7--|
A|-3-3-3-3-3-3-3-3-3-3-3-3-3-3-3-3-3-3-3-3--5--6-------3--------1------5--------6------5--|
E|---------------------------------------1--3--4-------1---------------3------------------|
       PM------------------------------>


************************************

| PM  Palm mute
| >   Accented note

************************************

Almost there ...

Sign in to get your own page with links to favourite songs and more. You are just one click away...

Login with Facebook Login with Google