Log in

One click and you are in

Login with Facebook Login with Google

Why sign up and log in

Guitar Tabs Explorer
Awfultune bass tabs for Redesign

Bass tabs

Tuning: Standard (E A D G)


Intro:

G|----------------|----------------|--------------|---------------|
D|----------------|--------7-------|--------------|---------------|
A|--------8-------|-5-5--5---5-5-5-|-6-6-6-6-6-8--|-5-5-5-5-5-3-5-|
E|-6-6--6---6-6-6-|----------------|--------------|---------------|


Verse 1:

G|----------------|----------------|---------------|---------------|
D|----------------|--------7-------|---------------|---------------|
A|--------8-------|-5-5--5---5-5-5-|-6-6-6-8-6-5-3-|-6-6-6-8-6-5-3-|
E|-6-6--6---6-6-6-|----------------|---------------|---------------|

G|----------------|----------------|---------------|---------------|
D|----------------|--------7-------|---------------|---------------|
A|--------8-------|-5-5--5---5-5-5-|-6-6-6-8-6-5-3-|-6-6-6-8-6-5-3-|
E|-6-6--6---6-6-6-|----------------|---------------|---------------|

G|----------------|----------------|---------------|---------------|
D|----------------|--------7-------|---------------|---------------|
A|--------8-------|-5-5--5---5-5-5-|-6-6-6-8-6-5-3-|-6-6-6-8-6-5-3-|
E|-6-6--6---6-6-6-|----------------|---------------|---------------|


Chorus:

G|----------------|----------------|---------------|---------------|
D|----------------|----------------|---------------|---------------|
A|----------------|----------------|---------------|---------------|
E|----------------|----------------|---------------|---------------|

G|----------------|----------------|---------------|---------------|
D|----------------|--------7-------|---------------|---------------|
A|--------8-------|-5-5--5---5-5-5-|-6-6-6-8-6-5-3-|-6-6-6-8-6-5-3-|
E|-6-6--6---6-6-6-|----------------|---------------|---------------|

G|----------------|----------------|---------------|---------------|
D|----------------|--------7-------|---------------|---------------|
A|--------8-------|-5-5--5---5-5-5-|-6-6-6-8-6-5-3-|-6-6-6-8-6-5-3-|
E|-6-6--6---6-6-6-|----------------|---------------|---------------|

G|----------------|----------------|---------------|---------------|
D|----------------|--------7-------|---------------|---------------|
A|--------8-------|-5-5--5---5-5-5-|-6-6-6-8-6-5-3-|-6-6-6-8-6-5-3-|
E|-6-6--6---6-6-6-|----------------|---------------|---------------|

G|----------------|----------------|---------------|---------------|
D|----------------|--------7-------|---------------|---------------|
A|--------8-------|-5-5--5---5-5-5-|-6-6-6-8-6-5-3-|-6-6-6-8-6-5-3-|
E|-6-6--6---6-6-6-|----------------|---------------|---------------|

Interlude:

G|----------------|----------------|--------------|---------------|
D|----------------|--------7-------|--------------|---------------|
A|--------8-------|-5-5--5---5-5-5-|-6-6-6-6-6-8--|-5-5-5-5-5-3-5-|
E|-6-6--6---6-6-6-|----------------|--------------|---------------|

Verse 2:

G|----------------|----------------|---------------|---------------|
D|----------------|--------7-------|---------------|---------------|
A|--------8-------|-5-5--5---5-5-5-|-6-6-6-8-6-5-3-|-6-6-6-8-6-5-3-|
E|-6-6--6---6-6-6-|----------------|---------------|---------------|

G|----------------|----------------|---------------|---------------|
D|----------------|--------7-------|---------------|---------------|
A|--------8-------|-5-5--5---5-5-5-|-6-6-6-8-6-5-3-|-6-6-6-8-6-5-3-|
E|-6-6--6---6-6-6-|----------------|---------------|---------------|

G|----------------|----------------|---------------|---------------|
D|----------------|--------7-------|---------------|---------------|
A|--------8-------|-5-5--5---5-5-5-|-6-6-6-8-6-5-3-|-6-6-6-8-6-5-3-|
E|-6-6--6---6-6-6-|----------------|---------------|---------------|


Chorus:

G|----------------|----------------|---------------|---------------|
D|----------------|----------------|---------------|---------------|
A|----------------|----------------|---------------|---------------|
E|----------------|----------------|---------------|---------------|

G|----------------|----------------|---------------|---------------|
D|----------------|--------7-------|---------------|---------------|
A|--------8-------|-5-5--5---5-5-5-|-6-6-6-8-6-5-3-|-6-6-6-8-6-5-3-|
E|-6-6--6---6-6-6-|----------------|---------------|---------------|

G|----------------|----------------|---------------|---------------|
D|----------------|--------7-------|---------------|---------------|
A|--------8-------|-5-5--5---5-5-5-|-6-6-6-8-6-5-3-|-6-6-6-8-6-5-3-|
E|-6-6--6---6-6-6-|----------------|---------------|---------------|

G|----------------|----------------|---------------|---------------|
D|----------------|--------7-------|---------------|---------------|
A|--------8-------|-5-5--5---5-5-5-|-6-6-6-8-6-5-3-|-6-6-6-8-6-5-3-|
E|-6-6--6---6-6-6-|----------------|---------------|---------------|

G|----------------|----------------|---------------|---------------|
D|----------------|--------7-------|---------------|---------------|
A|--------8-------|-5-5--5---5-5-5-|-6-6-6-8-6-5-3-|-6-6-6-8-6-5-3-|
E|-6-6--6---6-6-6-|----------------|---------------|---------------|

Almost there ...

Sign in to get your own page with links to favourite songs and more. You are just one click away...

Login with Facebook Login with Google