Log in

One click and you are in

Login with Facebook Login with Google

Why sign up and log in

Guitar Tabs Explorer
Awesome Machine chords for Used to be

Guitar chords

song: used to be
band: the awesome machine
album: it's ugly or nothing
tabbed by: Joel (j_sorensson@hotmail.com)
Pretty simple, the chorus varies a bit from time to time, but all parts are
tabbed and if you listen to the CD you should be able to figure out how.

*=play 6 times


Intro: w/wah
e--------
b--------
g--------
d--------
a-1/3333-
e--------


Verse: -no guitar-


Chorus 1:
e--------x3----------------  --------
b--------------------------  --------
g-3-3-5--5-5-5-------------  -3-3-5--
d-3-3-5--5-5-5-5-5-5-5-5-5-  -3-3-5--
a-1-1-3--3-3-3-5-5-5-5-5-5-  -1-1-3--
e--------------3-3-3-3-3-3-  --------


Chorus 2:
e--------x3----------------  ---------------------
b--------------------------  ----------------*--*-
g-3-3-5--5-5-5-------------  -3-3-5---------8--8--
d-3-3-5--5-5-5-5-5-5-5-5-5-  -3-3-5---------8--8--
a-1-1-3--3-3-3-5-5-5-5-5-5-  -1-1-3---------6--6--
e--------------3-3-3-3-3-3-  ---------------------


Chorus 3:
e---------x3---------------  ------------------
b--------------------------  ----------------*-
g-3-3-5--5-5-5-------------  -3-3-5---------8--
d-3-3-5--5-5-5-5-5-5-5-5-5-  -3-3-5---------8--
a-1-1-3--3-3-3-5-5-5-5-5-5-  -1-1-3---------6--
e--------------3-3-3-3-3-3-  ------------------

e-------------------------------------------------wah-wah in-----------
b-----------------------------------------*--*--*----------------------
g-3-3-5--5-5-5-------------3-3-5---------8--8--8--8---8---8---8---8--\-
d-3-3-5--5-5-5-5-5-5-5-5-5-3-3-5---------8--8--8--8---8---8---8---8--\-
a-1-1-3--3-3-3-5-5-5-5-5-5-1-1-3---------6--6--6----6---6---6---6-6--\-
e--------------3-3-3-3-3-3---------------------------------------------

.ok. questions? comments? corrections? pics of cheese?
mail me.

Almost there ...

Sign in to get your own page with links to favourite songs and more. You are just one click away...

Login with Facebook Login with Google