Log in

One click and you are in

Login with Facebook Login with Google

Why sign up and log in

Guitar Tabs Explorer
Avatar bass tabs for Raven wine

Bass tabs with lyrics

AVATAR - RAVEN WINE


Tuning: Drop A (A E A D)
Time Signature: 4|4
Key: D Dorian (with lots of non-scale notes)

This was a very challenging song to tab, so there may be errors, but it's more
than accurate enough to play along with the song.
As always, for the jazz break, I tabbed exactly what's played, but
it's always fun to add some improv over it!
Intro I
D|-----------------|-----------------|-----------------|-----------------|
A|-----------------|-----------------|-----------------|-----------------|
E|-----------------|--------3~-------|-----------------|--------5~-------|
A|-5~--------------|-----------------|-5~--------------|-----------------|

D|-----------------|-----------------|-----------------|-----------------|
A|-----------------|-----------------|-----------------|-----------------|
E|-----------------|--------3~-------|-----------------|--------5~-------|
A|-5~--------------|-----------------|-5~--------------|-----------------|

D|-----------------|-----------------|-----------------|-----------------|
A|-----------------|-----------------|-----------------|-----------------|
E|---------1--3-1--|-5x----------5---|---------3--5-3--|-6x----------6---|
A|-5---5-----------|-----------------|-6---6-----------|-----------------|

D|-----------------|-----------------|-----------------|-----------------|
A|-----------------|-----------------|-----------------|-----------------|
E|-2---2---5--6-5--|-2x----------2---|---------1--3-1--|-----------------|
A|-----------------|-----------------|-5---5-----------|-5x----------5---|

D|-----------------|-----------------|-----------------|-----------------|
A|-----------------|-----------------|-----------------|-----------------|
E|---------1--3-1--|-5x----------5---|-----------------|-3x----------3---|
A|-5---5-----------|-----------------|-3---3---6--7-6--|-----------------|

D|-----------------|-----------------|-----------------|-----------------|
A|-----------------|-----------------|-----------------|-----------------|
E|-2---2---5--6-5--|-2x----------2---|---------1--3-1--|-----------------|
A|-----------------|-----------------|-5---5-----------|-5x------7-------|

D|-----------------|-----------------|-----------------|-----------------|
A|-----------------|-----------------|-----------------|-----------------|
E|-5~--------------|-----------------|-----------------|-5---5---5---x---|
A|-----------------|-----------------|-----------------|-----------------|

Intro II
D|-----------------|-----------------|-----------------|-----------------|
A|-----------------|-----------------|-----------------|-----------------|
E|-----------------|-5---5---5---3---|-----------------|-5---5-----------|
A|-5---5---5---8---|-----------------|-5---5---5---8---|---------7---7---|

D|-----------------|-----------------|-----------------|-----------------|
A|-----------------|-----------------|-----------------|-----------------|
E|-----------------|-5---5---5---3---|-----------------|-5---5-----------|
A|-5---5---5---8---|-----------------|-5---5---5---8---|---------7---7---|

D|-----------------|-----------------|-----------------|-----------------|
A|-----------------|-----------------|-----------------|-----------------|
E|-3---3---3---6---|-5---5---5---5---|-3---3---3---6---|-5---5-----------|
A|-----------------|-----------------|-----------------|---------7---7---|


Verse I
D|-----------------|-----------------|-----------------|-----------------|
A|-----------------|-----------------|-----------------|-----------------|
E|-----------------|-----------------|-----------------|-----------------|
A|-5-0h5-0h5-0h7-0h|-4-0h4-0h4-0h4-0h|-5-0h5-0h5-0h7-0h|-4-0h4-0h44444444|

D|-----------------|-----------------|-----------------|-----------------|
A|-----------------|-----------------|-----------------|-----------------|
E|-----------------|-----------------|-----------------|-----------------|
A|-5-0h5-0h5-0h7-0h|-4-0h4-0h4-0h8-0h|-5-0h5-0h5-0h7-0h|-5~------7~------|

D|-----------------|-----------------|-----------------|-----------------|
A|-----------------|-----------------|-----------------|-----------------|
E|-----------------|-----------------|-----------------|-----------------|
A|-x-------5-0h7-0h|-4-0h4-0h4-0h4-0h|-5-0h5-0h5-0h7-0h|-4-0h4-0h44444444|

D|-----------------|-----------------|-----------------|-----------------|
A|-----------------|-----------------|-----------------|-----------------|
E|-----------------|-----------------|-----------------|-----------------|
A|-5-0h5-0h5-0h7-0h|-4-0h4-0h4-0h8-0h|-5-0h5-0h5-0h7-0h|-5~------7~------|


Chorus I
D|-----------------|-----------------|-----------------|-----------------|
A|-----------------|-----------------|-----------------|-----------------|
E|-----------------|-----------------|-----------------|-----3---1-------|
A|-5---5---5---5---|-5---5---5---3---|-5---5---5---5---|-5-----------6---|

D|-----------------|-----------------|-----------------|-----------------|
A|-----------------|-----------------|-----------------|-----------------|
E|-----------------|-----------------|-----------------|-----------------|
A|-5---5---5---5---|-5---5---5---3---|-4~----(4)-4~----|------(4)-4~-----|

D|-----------------|-----------------|-----------------|-----------------|
A|-----------------|-----------------|-----------------|-----------------|
E|-----------------|-----------------|-----------------|-----3---1-------|
A|-5---5---5---5---|-5---5---5---3---|-5---5---5---5---|-5-----------6---|

D|-----------------|-----------------|-----------------|-----------------|
A|-----------------|-----------------|-----------------|-----------------|
E|-----------------|-----------------|-----------------|-----------------|
A|-5---5---5---5---|-5---5---5---3---|-4~----(4)-4~----|------(4)-4~-----|

D|-----------------|-----------------|
A|-----------------|-----------------|
E|-----------------|-----------------|
A|-----------------|-----------------|


Verse II
D|-----------------|-----------------|-----------------|-----------------|
A|-----------------|-----------------|-----------------|-----------------|
E|-----------------|-----------------|-----------------|-----------------|
A|-5-0h5-0h5-0h7-0h|-4-0h4-0h4-0h4-0h|-5-0h5-0h5-0h7-0h|-4-0h4-0h44444444|

D|-----------------|-----------------|-----------------|-----------------|
A|-----------------|-----------------|-----------------|-----------------|
E|-----------------|-----------------|-----------------|-----------------|
A|-5-0h5-0h5-0h7-0h|-4-0h4-0h4-0h8-0h|-5-0h5-0h5-0h7-0h|-5x------7x------|

D|-----------------|-----------------|-----------------|-----------------|
A|-----------------|-----------------|-----------------|-----------------|
E|-----------------|-----------------|-----------------|-----------------|
A|-x-------5-0h7-0h|-4-0h4-0h4-0h4-0h|-5-0h5-0h5-0h7-0h|-4-0h4-0h44444444|

D|-----------------|-----------------|-----------------|-----------------|
A|-----------------|-----------------|-----------------|-----------------|
E|-----------------|-----------------|-----------------|-----------------|
A|-5-0h5-0h5-0h7-0h|-4-0h4-0h4-0h8-0h|-5-0h5-0h5-0h7-0h|-5~------7~------|


Chorus II
D|-----------------|-----------------|-----------------|-----------------|
A|-----------------|-----------------|-----------------|-----------------|
E|-----------------|-----------------|-----------------|-----3---1-------|
A|-5---5---5---5---|-5---5---5---3---|-5---5---5---5---|-5-----------6---|

D|-----------------|-----------------|-----------------|-----------------|
A|-----------------|-----------------|-----------------|-----------------|
E|-----------------|-----------------|-----------------|-----------------|
A|-5---5---5---5---|-5---5---5---3---|-4~----(4)-4~----|------(4)-4~-----|

D|-----------------|-----------------|-----------------|-----------------|
A|-----------------|-----------------|-----------------|-----------------|
E|-----------------|-----------------|-----------------|-----3---1-------|
A|-5---5---5---5---|-5---5---5---3---|-5---5---5---5---|-5-----------6---|

D|-----------------|-----------------|-----------------|-----------------|
A|-----------------|-----------------|-----------------|-----------------|
E|-----------------|-----------------|-----------------|-----------------|
A|-5---5---5---5---|-5---5---5---3---|-4~----(4)-4~----|------(4)-4~-----|

D|-----------------|-----------------|
A|-----------------|-----------------|
E|-----------------|-----------------|
A|-----------------|-----------------|


Bridge (played with a nice, jazzy swing!)
D|-----------------|-----------------|
A|-----------------|-----------------|
E|-----------------|-----------------|
A|-5~--------------|-----------------|

D|-----------------|-----------------|-----------------|-----------------|
A|-----------------|-----------------|-----------------|-----------------|
E|-----------------|--------6~-------|-----------------|--------5~-------|
A|-5~--------------|-----------------|-5~--------------|-----------------|

D|-----------------|-----------------|-----------------|-----------------|
A|-----------------|-----------------|-----------------|-----------------|
E|---------1--3-1--|-5x----------5---|-----------------|-3x----------3---|
A|-5---5-----------|-----------------|-3---3---6--7-6--|-----------------|

D|-----------------|-----------------|-----------------|-----------------|
A|-----------------|-6---------------|-----------------|----5---7---5--5-|
E|-2---2---5--6-5--|-----6~------6---|---------1--3-1--|-5---------------|
A|-----------------|-----------------|-5---5-----------|-----------------|
          (fast pull-offs)
D|-----------------|---------------------6h|-7---4-------------|---------7~-------|
A|-6---------------|-6p5p3-6p5p3-6---6-----|---------4---4p3h4-|-0---7------------|
E|-----6---2-------|-----------------------|-------------------|------------------|
A|-------------6---|-----------------------|-------------------|------------------|

D|-12x---11x---10x-|---9x----8x----7-|-----------------|-12~----/19-------|
A|-----------------|-----------------|-5~-----/12~-----|----------------5-|
E|-----------------|-----------------|-----------------|------------------|
A|-----------------|-----------------|-----------------|------------------|

D|-----------------|-----------------|-----------------|-----------------|
A|-3---------------|---------2-------|-----------------|-----------------|
E|-----3---0-------|-0---3-------3---|-5~--------------|-----------------|
A|-------------3---|-----------------|-----------------|-----------------|

D|-----------------|-----------------|
A|-----------------|-----------------|
E|-----------------|-5---5---5---x---|
A|-----------------|-----------------|


Riff
D|-----------------|-----------------|-----------------|-----------------|
A|-----------------|-----------------|-----------------|-----------------|
E|-----------------|-5---5---5---3---|-----------------|-5---5-----------|
A|-5---5---5---8---|-----------------|-5---5---5---8---|---------7---7---|

D|-----------------|-----------------|-----------------|-----------------|
A|-----------------|-----------------|-----------------|-----------------|
E|-----------------|-5---5---5---3---|-----------------|-5---5-----------|
A|-5---5---5---8---|-----------------|-5---5---5---8---|---------7---7---|

D|-----------------|-----------------|-----------------|-----------------|
A|-----------------|-----------------|-----------------|-----------------|
E|-3---3---3---6---|-5---5---5---5---|-3---3---3---6---|-5---5-----------|
A|-----------------|-----------------|-----------------|---------7---7---|


Verse III
D|-----------------|-----------------|-----------------|-----------------|
A|-----------------|-----------------|-----------------|-----------------|
E|-----------------|-----------------|-----------------|-----------------|
A|-5-0h5-0h5-0h7-0h|-4-0h4-0h4-0h4-0h|-5-0h5-0h5-0h7-0h|-4-0h4-0h44444444|

D|-----------------|-----------------|-----------------|-----------------|
A|-----------------|-----------------|-----------------|-----------------|
E|-----------------|-----------------|-----------------|-----------------|
A|-5-0h5-0h5-0h7-0h|-4-0h4-0h4-0h8-0h|-5-0h5-0h5-0h7-0h|-5~------7~------|

D|-----------------|-----------------|-----------------|-----------------|
A|-----------------|-----------------|-----------------|-----------------|
E|-----------------|-----------------|-----------------|-----------------|
A|-x---------------|-----------------|-8---7---5x------|-7---5~-----4~---|

D|-----------------|-----------------|
A|-----------------|-----------------|
E|-----------------|-5---------------|
A|-44444444-4-4-4--|-----5---7~------|
           >

Outro
D|-----------------|-----------------|-----------------|
A|-----------------|-----------------|-----------------|
E|-----------------|---------6~------|---------9~------|
A|-5-0h5-0h5-0h7-0h|-77777777--------|-77777777--------|
               >         >
D|-----------------|-----------------|-----------------|
A|-----------------|-----------------|-----------------|
E|-----------------|-----------------|-----------------|
A|-5-0h5-0h5-0h7-0h|-8---5---7---5---|-8---5---7---5---|

D|-----------------|-----------------|-----------------|-----------------|
A|-----------------|-----------------|-----------------|-----------------|
E|-----------------|-----------------|-----------------|-----------------|
A|-8-5-7-5-4-4-4-4-|-8-5-7-5-4-4-4-4-|-4-4-4-4-4-4-4-4-|-4-4-4-4-7-7-7-7-|

D|-----------------|
A|-----------------|
E|-----------------|
A|-5~--------------|

Happy playing!

************************************

| x  Dead note
| g  Grace note
| (n) Ghost note
| h  Hammer-on
| p  Pull-off
| r  Release
| >  Accented note
| t  Tapping
| b  Bend
| br Bend release
| pb Pre-bend
| pbr Pre-bend release
| /  Slide up
| \  Slide down
| ~  Vibrato
| s  Slap
| P  Pop
| PM Palm mute
| TR Trill
| N  Tremolo

Almost there ...

Sign in to get your own page with links to favourite songs and more. You are just one click away...

Login with Facebook Login with Google