Log in

One click and you are in

Login with Facebook Login with Google

Why sign up and log in

Guitar Tabs Explorer
Australian Crawl bass tabs for Reckless

Bass tabs

AUSTRALIAN CRAWL - "Reckless" - Bass Tab

Common Time(4/4)
Standard Tuning(EADG)
INTRO:
|---------|-------------|---------------|
|---------|-------------|---------------|
|-r-r-r-r-|-5-r---5-5-r-|-5-r---5-5-r-5-|
|---------|-------------|---------------|
 1 2 3 4  1 2 & a 3 4  1 2 & 3 4 &


VERSE 1:
|--------------|-------------|-------------|-------------|
|*-------------|-------------|-------------|-------------|
|*-5-r---5-5-r-|-4-r---4-4-r-|-3-r---3-3-r-|-5-r---5-5-r-|
|--------------|-------------|-------------|-------------|
  1 2 & a 3 4  1 2 & a 3 4  1 2 & a 3 4  1 2 & a 3 4

|-------------|-------------|-------------|-------------|
|-------------|-------------|-------------|-------------|
|-5-r---5-5-r-|-4-r---4-4-r-|-3-r---3-3-r-|-------------|
|-------------|-------------|-------------|-3-r---3-3-r-|
 1 2 & a 3 4  1 2 & a 3 4  1 2 & a 3 4  1 2 & a 3 4

|--------------|
|-------------*|
|-5-r---5-5-r-*|(x2)
|--------------|
 1 2 & a 3 4

1ST & 2ND CHORUS:
                (x2)
|--------------|--------------------|-------------|
|*-2-r---2-----|-------------------*|-------------|
|*---------2-r-|-3-r---3-----------*|-5-r---5-4-r-|
|--------------|---------3---3/5-3--|-------------|
  1 2 & a 3 4  1 2 & a 3 & a 4 &  1 2 & a 3 4

|-------------------|-------------|-------------|
|-------------------|-------------|-------------|
|-2-r---2-----------|-5-r---5-4-r-|-2-r---2-----|
|---------3---3/5-3-|-------------|---------3-5-|
 1 2 & a 3 & a 4 &  1 2 & a 3 4  1 2 & a 3 4

VERSE 2 & SOLO:
|-------------|-------------|-------------|-------------|
|-------------|-------------|-------------|-------------|
|-5-r---5-5-r-|-4-r---4-4-r-|-3-r---3-3-r-|-5-r---5-5-r-|
|-------------|-------------|-------------|-------------|
  1 2 & a 3 4  1 2 & a 3 4  1 2 & a 3 4  1 2 & a 3 4

|-------------|-------------|-------------|-------------|
|-------------|-------------|-------------|-------------|
|-5-r---5-5-r-|-4-r---4-4-r-|-3-r---3-3-r-|-------------|
|-------------|-------------|-------------|-3-r---3-3-r-|
 1 2 & a 3 4  1 2 & a 3 4  1 2 & a 3 4  1 2 & a 3 4

|-------------|
|-------------|
|-5-r---5-5-r-|
|-------------|
 1 2 & a 3 4

END CHORUS:
                (x2)
|--------------|--------------------|--------------|
|*-2-r---2-----|-------------------*|*-------------|
|*---------2-r-|-3-r---3-----------*|*-5-r---5-4-r-|
|--------------|---------3---3/5-3--|--------------|
  1 2 & a 3 4  1 2 & a 3 & a 4 &  1 2 & a 3 4
                       (x5)(fadeout)
|-------------------|-------------|--------------|
|-------------------|-------------|-------------*|
|-2-r---2-----------|-5-r---5-4-r-|-2-r---2-----*|
|---------3---3/5-3-|-------------|---------3-5--|
 1 2 & a 3 & a 4 &  1 2 & a 3 4  1 2 & a 3 4

By: Johari Taylor
E-mail: viking@powerup.com.au

Almost there ...

Sign in to get your own page with links to favourite songs and more. You are just one click away...

Login with Facebook Login with Google