Log in

One click and you are in

Login with Facebook Login with Google

Why sign up and log in

Guitar Tabs Explorer
Australian Crawl bass tabs for Downhearted

Bass tabs

AUSTRALIAN CRAWL - "Downhearted" - Bass Tab

Common Time(4/4)
Standard Tuning(EADG)
INTRO:
|-------------|-------------|-----------|---------|
|-------------|-------------|-----------|-.-------|
|-5-----------|-3-----------|-5---------|-3-------|
|-----5-----3-|-----3-----5-|-----5-----|---3-----|
 1 2 & 3 4 &  1 2 & 3 4 &  1 2 & 3 4  1 2 3 4


VERSE/SOLO:   _____     _____
        |all except  |last
|--------------|--------------|-----------|
|*-------------|-------------*|-.---------|
|*-5-----------|-3-----------*|-3---------|
|------5-----3-|-----3-----5--|-----3-----|
  1 2 & 3 4 &  1 2 & 3 4 &  1 2 & 3 4


CHORUS:
|------------|-----------|-----------|------------|
|*-----------|-----------|-----------|-----------*|
|*-----------|-----------|-3-r-3-3-r-|-----------*|
|--6-r-6-6-r-|-5-r-5-5-r-|-----------|-3-r-3-3-5--|
  1 2 & 3 4  1 2 & 3 4  1 2 & 3 4  1 2 & 3 4

|-----------|-----------|-----------|---------|
|-----------|-----------|-----------|-.-------|
|-----------|-----------|-3-r-3-3-r-|-3-------|
|-6-r-6-6-r-|-5-r-5-5-r-|-----------|---3-----|
 1 2 & 3 4  1 2 & 3 4  1 2 & 3 4  1 2 3 4

MIDDLE-EIGHT/END:
|-----------|---------|-----------|---------|-----------|---------|
|---------3-|---------|-----3---5-|---------|---------3-|---------|
|-5---3-----|-----5-3-|-5---------|-----1-3-|-5---3-----|-----5-3-|
|-----------|---------|-----------|---------|-----------|---------|
 1 2 & 3 4  1 2 3 4  1 2 & 3 4  1 2 3 4  1 2 & 3 4  1 2 3 4

|---------3-|---------|
|-----------|---------|
|-5---3-----|---------|
|-----------|---------|
 1 2 & 3 4  1 2 3 4

By: Johari Taylor
E-mail: viking@powerup.com.au

Almost there ...

Sign in to get your own page with links to favourite songs and more. You are just one click away...

Login with Facebook Login with Google