Search tabs and chords

Search for song, artist or band

Log in

One click and you are in

Login with Facebook Login with Google

Why sign up and log in

Guitar Tabs Explorer
Austin Stone Worship guitar tabs for Center my life

Guitar tabs

Intro:
e|------------|------------|------------|------------|
B|13-13-13-15-|17-17-17-18-|17-17-17-13-|12-12-12-12-|
G|------------|------------|------------|------------|
D|------------|------------|------------|------------|
A|------------|------------|------------|------------|
E|------------|------------|------------|------------|

Verse:
e|--------|---------|--------|---------|
B|--------|---------|--------|---------|
G|---12~~~|~~~---14~|---12~~~|~~~---12~|
D|14~~~~~~|~~~15~~~~|14~~~~~~|~~~15~~~~|
A|--------|---------|--------|---------|
E|--------|---------|--------|---------|

e|--------|---------|--------|---------|
B|--------|---------|--------|---------|
G|---12~~~|~~~---14~|---12~~~|~~~~~~~~~|
D|14~~~~~~|~~~15~~~~|12~~~~~~|~~~~~~~~~| x2
A|--------|---------|--------|---------|
E|--------|---------|--------|---------|

Pre-Chorus:
e|10~~~~~~|8~~~~~~~|8~~~~~~~|7~~~~~~~|
B|10~~~~~~|10~~~~~~|8~~~~~~~|8~~~~~~~|
G|10~~~~~~|9~~~~~~~|9~~~~~~~|7~~~~~~~|
D|--------|--------|--------|--------|
A|--------|--------|--------|--------|
E|--------|--------|--------|--------|

e|10~~~~~~|8~~~~~~~|7~~~~~~~|~~~~|
B|10~~~~~~|10~~~~~~|8~~~~~~~|~~~~|
G|10~~~~~~|9~~~~~~~|7~~~~~~~|~~~~|
D|--------|--------|--------|----|
A|--------|--------|--------|----|
E|--------|--------|--------|----|

Chorus:
e|5~~~|3~~~|8~~~~|7~~~~|
B|6~~~|5~~~|10~~~|8~~~~|
G|5~~~|5~~~|9~~~~|7~~~~|
D|----|----|-----|-----|
A|----|----|-----|-----|
E|----|----|-----|-----|

e|5~~~|3~~~|8~~~~|10~~~~|
B|6~~~|5~~~|10~~~|12~~~~|
G|5~~~|5~~~|9~~~~|12~~~~|
D|----|----|-----|-----|
A|----|----|-----|-----|
E|----|----|-----|-----|

e|--------------------|-----------------|---12~~~--12--12-|---10~~~--10--10-|
B|------13~~~~-13--13-|---13~~~--13--13-|13~~~~~~13--13---|12~~~~~~12--12---|
G|12h14------14--14---|12~~~~~~12--12---|-----------------|-----------------|
D|--------------------|-----------------|-----------------|-----------------|
A|--------------------|-----------------|-----------------|-----------------|
E|--------------------|-----------------|-----------------|-----------------|

e|-----------------|---12~~~--12--12-|---10~~~--10--10-|--10--10--10--10-|
B|---13~~~~-13--13-|13~~~~~~13--13---|12~~~~~~12--12---|13--13--12--12---|
G|14------14--14---|-----------------|-----------------|-----------------|
D|-----------------|-----------------|-----------------|-----------------| x2
A|-----------------|-----------------|-----------------|-----------------|
E|-----------------|-----------------|-----------------|-----------------|

Bridge/Pre-Chorus:
  F chord diagramFF        C chord diagramCC        Am chord diagramAmAm       G chord diagramGG        F chord diagramFF        C chord diagramCC        Am chord diagramAmAm      G chord diagramGG
e|--------|--------|--------|--------|--------|--------|--------|----|
B|----15~~|----13~~|----13~~|----12~~|----15~~|----13~~|----12~~|~~~~|
G|--14~~~~|--14~~~~|--12~~~~|--12~~~~|--14~~~~|--14~~~~|--12~~~~|~~~~|
D|15~~~~~~|15~~~~~~|14~~~~~~|14~~~~~~|15~~~~~~|15~~~~~~|12~~~~~~|~~~~|
A|--------|--------|--------|--------|--------|--------|--------|----|
E|--------|--------|--------|--------|--------|--------|--------|----|

Chorus 2:
e|------|------|------|--------|------|------|-------|-------|
B|--6~~~|--5~~~|-3h5~~|----3~~~|--6~~~|--5~~~|--10~~~|--8~~~~|
G|5~~~~~|5~~~~~|5~~~~~|5\4~~~~~|5~~~~~|5~~~~~|9~~~~~~|7~~~~~~|
D|------|------|------|--------|------|------|-------|-------|
A|------|------|------|--------|------|------|-------|-------|
E|------|------|------|--------|------|------|-------|-------|

e|--------|--------|------------|--------|
B|6-6-6-6-|5-5-5-5-|10-10-10-10-|8-8-8-8-|
G|5-5-5-5-|5-5-5-5-|9--9--9--9--|7-7-7-7-|
D|--------|--------|------------|--------|
A|--------|--------|------------|--------|
E|--------|--------|------------|--------|



************************************

| ~  Vibrato
| h  Hammer-on
| \  Slide down

Other versions of Center My Life

Center my lifeChords

Almost there ...

Sign in to get your own page with links to favourite songs and more. You are just one click away...

Login with Facebook Login with Google