Log in

One click and you are in

Login with Facebook Login with Google

Why sign up and log in

Guitar Tabs Explorer
Aurora tabs for Worldwide freeride

Guitar tabs

Intro

E-------------------------------------------------
B-------------------------------------------------
G-------------------------------------------------
D-------------------------------------------------
A-------------------------------------------------
E--5-5--7-7--9-9--5-5-5--5-5--7-7--9-9-9--5-------  x3


Verse One


Chorus

E-------------------------------------------------
B-------------------------------------------------
G-------------------------------------------------
D--7-7--9-9--5-5--7-7-7--7-7--9-9--5-5-5--7-------
A--7-7--9-9--5-5--7-7-7--7-7--9-9--5-5-5--7-------
E--5-5--7-7--9-9--5-5-5--5-5--7-7--3-3-3--5-------

Almost there ...

Sign in to get your own page with links to favourite songs and more. You are just one click away...

Login with Facebook Login with Google