Search tabs and chords

Search for song, artist or band

Log in

One click and you are in

Login with Facebook Login with Google

Why sign up and log in

Guitar Tabs Explorer
Aurica guitar tabs for No digas te quiero

Guitar tabs

Intro:

e|--------------------------------------------------------------------|
B|--------------------------------------------------------------------|
G|-----------------1-1-1-1--------------------------------------------|
D|-4-2-4-2-4--2-4--1-1-1-1--4-2-4-2-4--2-4----------------------------|
A|-2-2-2-2-2--2-2--0-0-0-0--2-2-2-2-2--2-2--1-------------------------|
E|------------------------------------------0-------------------------|(x4)

Overdrive
e|--------------------------------------------------------------------|
B|--------------------------------------------------------------------|
G|-----------------1-1-1-1--------------------------------------------|
D|-4-2-4-2-4--2-4--1-1-1-1--4-2-4-2-4--2-4----------------------------|
A|-2-2-2-2-2--2-2--0-0-0-0--2-2-2-2-2--2-2--1-------------------------|
E|------------------------------------------0-------------------------|(x4)

Verse:

Clean
e|--------------------------------------------------------------------|
B|--------------------------------------------------------------------|
G|-----------------1-1-1-1--------------------------------------------|
D|-4-2-4-2-4--2-4--1-1-1-1--4-2-4-2-4--2-4----------------------------|
A|-2-2-2-2-2--2-2--0-0-0-0--2-2-2-2-2--2-2--1-------------------------|
E|------------------------------------------0-------------------------|(x4)

Pre-Chorus:

Overdrive
e|--------------------------------------------------------------------|
B|--------------------------------------------------------------------|
G|--------------------------------------------------------------------|
D|-4-4-4-4-4-4-4-4---7-7-7-7-7----------------------------------------|
A|-2-2-2-2-2-2-2-2---5-5-5-5-5----------------------------------------|
E|--------------------------------------------------------------------|

Chorus:

Overdrive
e|--------------------------------------------------------------------|
B|--------------------------------------------------------------------|
G|--------------------------------------------------------------------|
D|-4-2-4-2-4--2-4--7-7-7-7-7--9---4-2-4-2-4--2-4----------------------|
A|-2-2-2-2-2--2-2--5-5-5-5-5--7---2-2-2-2-2--2-2--1-------------------|
E|------------------------------------------------0-------------------|

Overdrive
e|--------------------------------------------------------------------|
B|--------------------------------------------------------------------|
G|--------------------------------------------------------------------|
D|-4-2-4-2-4--2-4--7-7-7-7-7--9---4-2-4-2-4--2-4----------------------|
A|-2-2-2-2-2--2-2--5-5-5-5-5--7---2-2-2-2-2--2-2--3-------------------|
E|------------------------------------------------1-------------------|

Overdrive
e|--------------------------------------------------------------------|
B|--------------------------------------------------------------------|
G|--------------------------------------------------------------------|
D|-4-2-4-2-4--2-4--9-9-7---4-2-4-2-4--2-4-----------------------------|
A|-2-2-2-2-2--2-2--9-9-----2-2-2-2-2--2-2--1--1-----------------------|
E|-----------------------------------------0--0-----------------------|(x2)

Verse:

Clean
e|--------------------------------------------------------------------|
B|--------------------------------------------------------------------|
G|-----------------1-1-1-1--------------------------------------------|
D|-4-2-4-2-4--2-4--1-1-1-1--4-2-4-2-4--2-4----------------------------|
A|-2-2-2-2-2--2-2--0-0-0-0--2-2-2-2-2--2-2--1-------------------------|
E|------------------------------------------0-------------------------|(x4)

Pre-Chorus:

Overdrive
e|--------------------------------------------------------------------|
B|--------------------------------------------------------------------|
G|--------------------------------------------------------------------|
D|-4-4-4-4-4-4-4-4---7------------------------------------------------|
A|-2-2-2-2-2-2-2-2---5------------------------------------------------|
E|--------------------------------------------------------------------|

Chorus:

Overdrive
e|--------------------------------------------------------------------|
B|--------------------------------------------------------------------|
G|--------------------------------------------------------------------|
D|-4-2-4-2-4--2-4--7-7-7-7-7--9---4-2-4-2-4--2-4----------------------|
A|-2-2-2-2-2--2-2--5-5-5-5-5--7---2-2-2-2-2--2-2--1-------------------|
E|------------------------------------------------0-------------------|

e|--------------------------------------------------------------------|
B|--------------------------------------------------------------------|
G|--------------------------------------------------------------------|
D|-4-2-4-2-4--2-4--7-7-7-7-7--9---4-2-4-2-4--2-4----------------------|
A|-2-2-2-2-2--2-2--5-5-5-5-5--7---2-2-2-2-2--2-2--3-------------------|
E|------------------------------------------------1-------------------|


e|--------------------------------------------------------------------|
B|--------------------------------------------------------------------|
G|--------------------------------------------------------------------|
D|-4-2-4-2-4--2-4--9-9-7---4-2-4-2-4--2-4-----------------------------|
A|-2-2-2-2-2--2-2--9-9-----2-2-2-2-2--2-2--1--1-----------------------|
E|-----------------------------------------0--0-----------------------|(x2)


Solo:

e|--------------------------------------------------------------------|
B|--------------------------------------------------------------------|
G|--------------------------------------------------------------------|
D|-4-2-4-2-4--2-4--7-7-7-7-7--9---4-2-4-2-4--2-4----------------------|
A|-2-2-2-2-2--2-2--5-5-5-5-5--7---2-2-2-2-2--2-2--1-------------------|
E|------------------------------------------------0-------------------|(x4)


Chorus:

e|--------------------------------------------------------------------|
B|--------------------------------------------------------------------|
G|--------------------------------------------------------------------|
D|-4-2-4-2-4--2-4-4-2-4--2-4-4-2-4--4-2-4-2-4--2-4-4-2-4--2-4-4-2-4---|
A|-2-2-2-2-2--2-2-2-2-2--2-2-2-2-2--2-2-2-2-2--2-2-2-2-2--2-2-2-2-2---|
E|--------------------------------------------------------------------|

e|--------------------------------------------------------------------|
B|--------------------------------------------------------------------|
G|--------------------------------------------------------------------|
D|-4----------------------------7---------------------------9---------|
A|-2----------------------------5---------------------------7---------|

Almost there ...

Sign in to get your own page with links to favourite songs and more. You are just one click away...

Login with Facebook Login with Google